Kamikazee - Ung Tagalog Chords & Tabs

 

Ung Tagalog Chords & Tabs

Kamikazee Chords & Tabs

Version: 1 Type: Bass Tab 0 ratings
1 star 2 stars 3 stars 4 stars 5 stars
comments

Ung Tagalog Bass Tab

Ung tagalog by kamikazee
Tabber: Madapaka_mhgs@yahoo.com/
Intro:                                                                                  4x
G--------------------------------šU-------------------------šU--------|U
D|-------------------------------šU-------------------------šU--------|U
A|--7\3/7¡ª77777777----------5555-šU--77777777----------5555-šU--7~---|U
E|-----------------55555555------šU-----------55555555------šU--------|U

  Riff 1 00:45 (2x)
G|---------------------------|U
D|---------------------------|U
A|--77----44-----------------|U
E|-----77----44-55-44-55-77--|U

Verse (2x)
G|-----------------------------------|U
D|-----------------------------------|U
A|--777777---444444------------------|U
E|---------7--------45555555-777777--|U

Riff 1
Verse

Chorus (4x)
G|-----------------------|U
D|-----------------------|U
A|--7777------4444-------|U
E|-------7777------5555--|U
[ Tab from: http://www.guitartabs.cc/tabs/k/kamikazee/ung_tagalog_btab.html ]
Riff 2
G|---------------------------------------------------------|U
D|------9-7---7-----------------6-4-6-4--------------------|U
A|--777-----9-------9-7---7\444-------------6-4-6-4--------|U
E|--------------777-----9---------------444----------------|U

G|------------------------------------------------------|U
D|------9-7---7----------------6-4-6-4------------------|U
A|--777-----9------9-7---7\444-------------6-4-6-4-7~---|U
E|--------------777----9---------------444--------------|U

Riff 3 (slow part)
                   (2x)
G|-----------šU---------------|U
D|-----------šU---------------|U
A|--4~-------šU--7~-4~--------|U
E|-----5~-7~-šU--------5~-7---|-šU

Riff 4
             (3x)
G|------------------------------šU---------------------------|U
D|------------------------------šU---------------------------|U
A|--777777-444444---------------šU--777777-444444------------|U
E|----------------555555-777777-šU----------------555555-7---|-šU

Riff 5
       (3x)
G|-----------------šU------------------------|U
D|-----------------šU------------------------|U
A|--7-7-4-4--------šU--7-7-4-4---------------|U
E|----------5-5-7--šU----------5-5-7-5h75h7--|U


Do chorus
Do Riff 1
Do Riff 2 till fade
Comments