Kamikazee - Narda Chords & Tabs

 

Narda Chords & Tabs

Kamikazee Chords & Tabs

Version: 3 Type: Tab 0 ratings
1 star 2 stars 3 stars 4 stars 5 stars
comments

Narda Tab

   
-------------------------------------------------------------------------------
			     Narda - Kamikaze
-------------------------------------------------------------------------------
Tabbed by: Roy Mahinay
Email:sceptile_Z@yahoo.com

e2 correct na ung picking sa intro at verse
mahirap ng konti pero parehong-pareho sa kanta
astig ung kanta na to sana may rock version
heheh
gud luck!


Intro:

E|--------0-----0-----0-----------|
B|-----3----3-----3-----3---0-----|
G|--------------------------------|
D|---0--0-----0-----0-----0-------|
A|--------------------------------|
E|--------------------------------|

E|--------0-----0-----0-----------|
B|-----3----3-----3-----3---------|
G|--------------------------------|
D|--------------------------------|
A|---2--2-----2-----2-----2-------|
E|--------------------------------|

E|--------0-----0-----0-----------|
B|-----3----3-----3-----3---0-----|
G|--------------------------------|
D|--------------------------------|
A|--------------------------------|
E|---3--3-----3-----3-----3-------|

E|--------0------3~~--------------|
B|-----3----3----3~~--------------|
G|--------------------------------|
D|--------------------------------|
A|---0--0-----0-------------------|
E|--------------------------------|

Preverse:
   D                                Bm
E|-------------------------------------------------------------------|
B|-------------------------------------------------------------------|
G|-7-7-7-7-7-7-7-7-7-7-7-7-7-7-7-7-----------------------------------|
D|-7-7-7-7-7-7-7-7-7-7-7-7-7-7-7-7--9-9-9-9-9-9-9-9-9-9-9-9-9-9-9-9--|
A|-5-5-5-5-5-5-5-5-5-5-5-5-5-5-5-5--9-9-9-9-9-9-9-9-9-9-9-9-9-9-9-9--|
E|----------------------------------7-7-7-7-7-7-7-7-7-7-7-7-7-7-7-7--|
 |
E|-------------------------------------------------------------------|
B|-------------------------------------------------------------------|
G|-7-7-7-7-7-7-7-7-7-7-7-7-7-7-7-7--7-7-7-7-7-7-7-7-7-7-7-7-7-7-7-7--|
D|-x-x-x-x-x-x-x-x-x-x-x-x-x-x-x-x--x-x-x-x-x-x-x-x-x-x-x-x-x-x-x-x--|
A|-5-5-5-5-5-5-5-5-5-5-5-5-5-5-5-5--5-5-5-5-5-5-5-5-5-5-5-5-5-5-5-5--|
E|-------------------------------------------------------------------|

   G                                A
E|-------------------------------------------------------------------|
B|-------------------------------------------------------------------|
G|-------------------------------------------------------------------|
D|-5-5-5-5-5-5-5-5-5-5-5-5-5-5-5-5--7-7-7-7-7-7-7-7-7-7-7-7-7-7-7-7--|
A|-5-5-5-5-5-5-5-5-5-5-5-5-5-5-5-5--7-7-7-7-7-7-7-7-7-7-7-7-7-7-7-7--|
E|-3-3-3-3-3-3-3-3-3-3-3-3-3-3-3-3--5-5-5-5-5-5-5-5-5-5-5-5-5-5-5-5--|
 |
E|-----------------------------------------------------------------------|
B|-----------------------------------------------------------------------|
G|-7-7-7-7-7-7-7-7-7-7-7-7-7-7-7-7--9-9-9-9-9-9-9-9/11-11-11-11-9-9-9-9--|
D|-x-x-x-x-x-x-x-x-x-x-x-x-x-x-x-x--x-x-x-x-x-x-x-x- x- x- x- x-x-x-x-x--|
A|-5-5-5-5-5-5-5-5-5-5-5-5-5-5-5-5--7-7-7-7-7-7-7-7/ 9- 9 -9 -9-7-7-7-7--|
E|-----------------------------------------------------------------------|

   D                                Bm
E|-------------------------------------------------------------------|
B|-------------------------------------------------------------------|
G|-7-7-7-7-7-7-7-7-7-7-7-7-7-7-7-7-----------------------------------|
D|-7-7-7-7-7-7-7-7-7-7-7-7-7-7-7-7--9-9-9-9-9-9-9-9-9-9-9-9-9-9-9-9--|
A|-5-5-5-5-5-5-5-5-5-5-5-5-5-5-5-5--9-9-9-9-9-9-9-9-9-9-9-9-9-9-9-9--|
E|----------------------------------7-7-7-7-7-7-7-7-7-7-7-7-7-7-7-7--|
 |
E|-------------------------------------------------------------------|
B|-------------------------------------------------------------------|
G|-9-9-9-7-7-7-9-9-9-7-7-7-9-9-7-7--9-9-9-7-7-7-------7-7-7-x-x-7-7--|
D|----------------------------------------------7-7-7----------------|
A|-------------------------------------------------------------------|
E|-------------------------------------------------------------------|

   G                                A
E|---------------------------------------------------|
B|---------------------------------------------------|
G|---------------------------------------------------|
D|-5-5-5-5-5-5-5-5-5-5-5-5-5-5-5-5--7-7-7-7-7-7-7-7--|
A|-5-5-5-5-5-5-5-5-5-5-5-5-5-5-5-5--7-7-7-7-7-7-7-7--|
E|-3-3-3-3-3-3-3-3-3-3-3-3-3-3-3-3--5-5-5-5-5-5-5-5--|
 |
E|---------------------------------------------------|
B|---------------------------------------------------|
G|-9-9-9-7-7-7-9-9-9-7-7-7-9-9-7-7--9-9-9-7-7-7-6-6--|
D|---------------------------------------------------|
A|---------------------------------------------------|
E|---------------------------------------------------|

E|--------------------|
B|--------------------|
G|--------------------|
D|-9-9-9-9-1111-12-x--|
A|-9-9-9-9-1111-12-x--|
E|-7-7-7-7--9-9-10-x--|
 |
E|--------------------|
B|--------------------|
G|-9-9-9-9--7-7--7-9--|
D|--------------------|
A|--------------------|
E|--------------------|

Verse:

    D
E|----0-----0-----0-----0-----0---------|
B|------3-----3-----3-----3-----3-------|
G|--------------------------------------|
D|--0-----0-----0-----0-----0-----0-----|
A|--------------------------------------|
E|--------------------------------------|

    Bm
E|----0-----0-----0-----0-----0---------|
B|------3-----3-----3-----3-----3-------|
G|--------------------------------------|
D|--------------------------------------|
A|--2-----2-----2-----2-----2-----2-----|
E|--------------------------------------|

    G
E|----0-----0-----0-----0-----0---------|
B|------3-----3-----3-----3-----3-------|
G|--------------------------------------|
D|--------------------------------------|
A|--------------------------------------|
E|--3-----3-----3-----3-----3-----3-----|
 |
E|--------------------------------------|
B|--------------------------------------|
G|--7-7-7-6-6-6-7-7---------------------|
D|--------------------------------------|
A|--------------------------------------|
E|--------------------------------------|

    A
E|----0-----0-----3-----2-----2---------|
B|------3-----3-----3-----3-----3-------|
G|--------------------------------------|
D|--------------------------------------|
A|--0-----0-----0-----0-----0-----0-----|
E|--------------------------------------|

Prechorus
[ Tab from: http://www.guitartabs.cc/tabs/k/kamikazee/narda_tab_ver_3.html ]
   D                                Bm
   PM----------------------------|  PM---------------------------------|
E|---------------------------------------------------------------------|
B|---------------------------------------------------------------------|
G|-7-7-7-7-7-7-7-7-7-7-7-7-7-7-7-7-------------------------------------|
D|-7-7-7-7-7-7-7-7-7-7-7-7-7-7-7-7--9-9-9-9-9-9-9-9-9-9-9-9-9-9-9-9----|
A|-5-5-5-5-5-5-5-5-5-5-5-5-5-5-5-5--9-9-9-9-9-9-9-9-9-9-9-9-9-9-9-9----|
E|----------------------------------7-7-7-7-7-7-7-7-7-7-7-7-7-7-7-7----|
 |
 | PM----------------------------|  PM---------------------------------|
E|---------------------------------------------------------------------|
B|---------------------------------------------------------------------|
G|-6-6-6-6-6-6-6-6-7-7-7-7-7-7-7-7--7-7-7-7-7-7-7-7-6-6-6-6-7-7-7-7----|
D|---------------------------------------------------------------------|
A|---------------------------------------------------------------------|
E|---------------------------------------------------------------------|

   G                                A
   PM----------------------------|  PM---------------------------------|
E|---------------------------------------------------------------------|
B|---------------------------------------------------------------------|
G|---------------------------------------------------------------------|
D|-5-5-5-5-5-5-5-5-5-5-5-5-5-5-5-5--7-7-7-7-7-7-7-7-7-7-7-7-7-7-7-7----|
A|-5-5-5-5-5-5-5-5-5-5-5-5-5-5-5-5--7-7-7-7-7-7-7-7-7-7-7-7-7-7-7-7----|
E|-3-3-3-3-3-3-3-3-3-3-3-3-3-3-3-3--5-5-5-5-5-5-5-5-5-5-5-5-5-5-5-5----|
 |
 | PM----------------------------|  PM---------------------------------|
E|---------------------------------------------------------------------|
B|---------------------------------------------------------------------|
G|-7-7-7-7-7-7-7-7-6-6-6-6-7-7-7-7--7-7-7-7-7-7-7-7-6-6-6-6-7-7-7-7----|
D|---------------------------------------------------------------------|
A|---------------------------------------------------------------------|
E|---------------------------------------------------------------------|

Chorus
   D                                Bm
E|-------------------------------------------------------------------|
B|-------------------------------------------------------------------|
G|-7-7-7-7-7-7-7-7-7-7-7-7-7-7-7-7-----------------------------------|
D|-7-7-7-7-7-7-7-7-7-7-7-7-7-7-7-7--9-9-9-9-9-9-9-9-9-9-9-9-9-9-9-9--|
A|-5-5-5-5-5-5-5-5-5-5-5-5-5-5-5-5--9-9-9-9-9-9-9-9-9-9-9-9-9-9-9-9--|
E|----------------------------------7-7-7-7-7-7-7-7-7-7-7-7-7-7-7-7--|

   G                                A
E|-------------------------------------------------------------------|
B|-------------------------------------------------------------------|
G|-------------------------------------------------------------------|
D|-5-5-5-5-5-5-5-5-5-5-5-5-5-5-5-5--7-7-7-7-7-7-7-7-7-7-7-7-7-7-7-7--|
A|-5-5-5-5-5-5-5-5-5-5-5-5-5-5-5-5--7-7-7-7-7-7-7-7-7-7-7-7-7-7-7-7--|
E|-3-3-3-3-3-3-3-3-3-3-3-3-3-3-3-3--5-5-5-5-5-5-5-5-5-5-5-5-5-5-5-5--|

   D                                Bm
E|-------------------------------------------------------------------|
B|-------------------------------------------------------------------|
G|-7-7-7-7-7-7-7-7-7-7-7-7-7-7-7-7-----------------------------------|
D|-7-7-7-7-7-7-7-7-7-7-7-7-7-7-7-7--9-9-9-9-9-9-9-9-9-9-9-9-9-9-9-9--|
A|-5-5-5-5-5-5-5-5-5-5-5-5-5-5-5-5--9-9-9-9-9-9-9-9-9-9-9-9-9-9-9-9--|
E|----------------------------------7-7-7-7-7-7-7-7-7-7-7-7-7-7-7-7--|
 |
E|-------------------------------------------------------------------|
B|-------------------------------------------------------------------|
G|-9-9-9-7-7-7-9-9-9-7-7-7-9-9-7-7--9-9-9-7-7-7-9-9-9-7-7-7-9-9-7-7--|
D|-------------------------------------------------------------------|
A|-------------------------------------------------------------------|
E|-------------------------------------------------------------------|

   G                                A
E|---------------------------------------------------|
B|---------------------------------------------------|
G|---------------------------------------------------|
D|-5-5-5-5-5-5-5-5-5-5-5-5-5-5-5-5--7-7-7-7-7-7-7-7--|
A|-5-5-5-5-5-5-5-5-5-5-5-5-5-5-5-5--7-7-7-7-7-7-7-7--|
E|-3-3-3-3-3-3-3-3-3-3-3-3-3-3-3-3--5-5-5-5-5-5-5-5--|
 |
E|---------------------------------------------------|
B|---------------------------------------------------|
G|-9-9-9-7-7-7-9-9-9-7-7-7-9-9-7-7--9-9-9-7-7-7-9-9--|
D|---------------------------------------------------|
A|---------------------------------------------------|
E|---------------------------------------------------|

E|--------------------|
B|--------------------|
G|--------------------|
D|-9-9-9-9-1111-12-x--|
A|-9-9-9-9-1111-12-x--|
E|-7-7-7-7--9-9-10-x--|
 |
E|--------------------|
B|--------------------|
G|-7-7-7-7--9-9--7-7--|
D|--------------------|
A|--------------------|
E|--------------------|

Repeat Verse with this riff (4x)
E|--------------------------------------|
B|--------------------------------------|
G|--7-7-7-6-6-6-7-----------------------|
D|--------------------------------------|
A|--------------------------------------|
E|--------------------------------------|

Repeat Prechorus
Repeat Chorus
Repeat Verse (wala ung riff)

"Tumalon kaya..."
   D                                Bm
   PM----------------------------|  PM---------------------------------|
E|---------------------------------------------------------------------|
B|---------------------------------------------------------------------|
G|-7-7-7-7-7-7-7-7-7-7-7-7-7-7-7-7-------------------------------------|
D|-7-7-7-7-7-7-7-7-7-7-7-7-7-7-7-7--9-9-9-9-9-9-9-9-9-9-9-9-9-9-9-9----|
A|-5-5-5-5-5-5-5-5-5-5-5-5-5-5-5-5--9-9-9-9-9-9-9-9-9-9-9-9-9-9-9-9----|
E|----------------------------------7-7-7-7-7-7-7-7-7-7-7-7-7-7-7-7----|

   G
   PM--------------------------------|
E|-----------------------------------|
B|-----------------------------------|
G|-----------------------------------|
D|-5-5-5-5-5-5-5-5-5-5-5-5-5-5-5-5---|
A|-5-5-5-5-5-5-5-5-5-5-5-5-5-5-5-5---|
E|-3-3-3-3-3-3-3-3-3-3-3-3-3-3-3-3---|

  A
  PM----------------------------------|
E|------------------------------------|
B|------------------------------------|
G|------------------------------------|
D|-7-7-7-7-7-7-7-7-7-7-7-7-7-7-7-7----|
A|-7-7-7-7-7-7-7-7-7-7-7-7-7-7-7-7----|
E|-5-5-5-5-5-5-5-5-5-5-5-5-5-5-5-5----|
 |
E|----------------------------------|
B|----------------------------------|
G|-7-7-7-6-6-6-6-6-9-9-9-9-9-9-9-9--|
D|----------------------------------|
A|----------------------------------|
E|----------------------------------|

"Darating kaya.."
   D                                Bm
E|-------------------------------------------------------------------|
B|-------------------------------------------------------------------|
G|-7-7-7-7-7-7-7-7-7-7-7-7-7-7-7-7-----------------------------------|
D|-7-7-7-7-7-7-7-7-7-7-7-7-7-7-7-7--9-9-9-9-9-9-9-9-9-9-9-9-9-9-9-9--|
A|-5-5-5-5-5-5-5-5-5-5-5-5-5-5-5-5--9-9-9-9-9-9-9-9-9-9-9-9-9-9-9-9--|
E|----------------------------------7-7-7-7-7-7-7-7-7-7-7-7-7-7-7-7--|

E|-------------------------------------------------------------------|
B|-------------------------------------------------------------------|
G|---7-6---7-6---7-6---7-6---7-6-------7-6---7-6---7-6---7-6---7-6---|
D|-7-----7-----7-----7-----7-----7--7-----7-----7-----7-----7-----7--|
A|-------------------------------------------------------------------|
E|-------------------------------------------------------------------|

   G
E|----------------------------------|
B|----------------------------------|
G|----------------------------------|
D|-5-5-5-5-5-5-5-5-5-5-5-5-5-5-5-5--|
A|-5-5-5-5-5-5-5-5-5-5-5-5-5-5-5-5--|
E|-3-3-3-3-3-3-3-3-3-3-3-3-3-3-3-3--|

E|----------------------------------|
B|----------------------------------|
G|---7-6---7-6---7-6---7-6---7-6----|
D|-7-----7-----7-----7-----7-----7--|
A|----------------------------------|
E|----------------------------------|

   A
E|-0--|
B|-2--|
G|-2--|
D|-2--|
A|-0--|
E|----| ring

Repeat Chorus 2x
Comments