Kamikazee - Narda Chords & Tabs

 

Narda Chords & Tabs

Kamikazee Chords & Tabs

Version: 1 Type: Tab 0 ratings
1 star 2 stars 3 stars 4 stars 5 stars
comments

Narda Tab

I DEDICATE THIS TAB TO ALL ANGEL LOCSIN FANS HEHE..
SIMPLE SONG PERO ASTIG, FAVORITE KO..
MADALI LANG... FRIENDSTER ---> friendster@jof328.com

THIS IS THE ACOUSTIC VERSION OF NARDA YUNG KINANTA NILA SA ROCK MYX..
GANI2 KO SYA TUGTUGIN KANYA-KANYANG DISKARTE NMAN YAN EH..

Narda by kamikazee

LEGEND : . (palm mute)

INTRO:

GUITAR 1
E--------0-----0-----0-------------0-----0-----0--------------0-----0-----0--------|
B-----3----3-----3-----3---3----3----3-----3-----3---3-----3----3-----3-----3----3-|
G----------------------------------------------------------------------------------|
D---0--0-----0-----0-----0---------------------------------------------------------|
A-----------------------------2--2-----2-----2-----2-------------------------------|
E--------------------------------------------------------3--3-----3-----3-----3----|

E--------0------3~~--------------|
B-----3----3----3~~--------------|
G--------------------------------| TAP!
D--------------------------------|
A---0--0-----0-------------------|
E--------------------------------|

THEN
E---------------------------------------------|
B--6666666-3333333----------------------------|
G--7777777-4444444-4444444-6666666-101010-888-|
D--7777777-4444444-5555555-7777777-111111-999-| sabay nyo sa tyming
A--5555555-2222222-5555555-7777777-111111-999-|
E------------------3333333-5555555- 9 9 9-777-|

pasok
GUITAR 2
E------------------------|
B--9999-77-9999-77-99-77-| (2X)
G------------------------|

E--------------------|
B--77h9-7-77h9-7---7-| (2X)
G----------------7---|

GUITAR 1
E----------------------------------|
B--6666666-3333333-----------------|
G--7777777-4444444-4444444-6666666-|
D--7777777-4444444-5555555-7777777-|
A--5555555-2222222-5555555-7777777-|
E------------------3333333-5555555-|


VERSE:
GUITAR 1
E---0-----0-----0-----0----0----0-----0-----0-----0----0----0----0-----0----0-----0----0---0---|
B-----3-----3-----3-----3---3-----3----3-----3-----3----3----3-----3----3-----3-----3----3--3--|
G----------------------------------------------------------------------------------------------|
D-0-----0----0-----0-----0---------------------------------------------------------------------|
A-----------------------------2-----2-----2-----2-----2----------------------------------------|
E--------------------------------------------------------------3------3----3-----3-----3-------|

E-----0-----0-----3~~-------------|
B-------3-----3---3~~-------------|
G---------------------------------|
D---------------------------------|
A---0-----0-----0-----------------|
E---------------------------------|

GUITAR 2
E----------------------------------|
B--6666666-3333333-----------------|
G--7777777-4444444-4444444-6666666-|
D--7777777-4444444-5555555-7777777-|
A--5555555-2222222-5555555-7777777-|
E------------------3333333-5555555-|
[ Tab from: http://www.guitartabs.cc/tabs/k/kamikazee/narda_tab.html ]
sa part na "mapapansin kaya sa dame ng yong ginagawa"
GUITAR 1&2(palm mute)
E----------------------------------|
B--6666666-3333333-----------------|
G--7777777-4444444-4444444-6666666-|
D--7777777-4444444-5555555-7777777-|
A--5555555-2222222-5555555-7777777-|
E------------------3333333-5555555-|


CHORUS:

"Awit na nananawagan"
E---------------|
B--666666666666-|
G--777777777777-|
D--777777777777-|
A--555555555555-|
E---------------|

"baka sakaling napakikinggan"
E---------------|
B--333333333333-|
G--444444444444-|
D--444444444444-|
A--222222222222-|
E---------------|

"Pag ibig na palaisipan"
E---------------|
B---------------|
G--444444444444-|
D--555555555555-|
A--555555555555-|
E--333333333333-|

"sa kanta na  lang idadaan"
E---------------|
B---------------|
G--666666666666-|
D--777777777777-|
A--777777777777-|
E--555555555555-|

pasok
GUITAR 2
E------------------------|
B--9999-77-9999-77-99-77-| (2X)
G------------------------|

E--------------------|
B--77h9-7-77h9-7---7-| (2X)
G----------------7---|


*SAME PATTERN PARA SA SUSUNOD NA LINE

"Nag aabang sa langit, sa mga ulap sumisilip
Sa likod ng mga tala,kahit sulyap lang darna"

VERSE ULIT THEN CHORUS

THEN QUIET PART

GUITAR 1
E--------0-----0-----0-------------0-----0-----0--------------0-----0-----0--------|
B-----3----3-----3-----3---3----3----3-----3-----3---3-----3----3-----3-----3----3-|
G----------------------------------------------------------------------------------|
D---0--0-----0-----0-----0---------------------------------------------------------|
A-----------------------------2--2-----2-----2-----2-------------------------------|
E--------------------------------------------------------3--3-----3-----3-----3----|

E--------0------3~~--------------|
B-----3----3----3~~--------------|
G--------------------------------| 
D--------------------------------|
A---0--0-----0-------------------|
E--------------------------------|

"Tumalon kaya ako sa bangin.."
GUITAR 1
E----------------------------------|
B--6666666-3333333-----------------|
G--7777777-4444444-4444444-6666666-|
D--7777777-4444444-5555555-7777777-|
A--5555555-2222222-5555555-7777777-|
E------------------3333333-5555555-|
   ....... .......

GUITAR 2
E----------------------------------|
B----------------------------------|
G-7-7-7-6-6-6-6-6-9-9-9-9-9-9-9-9--|
D----------------------------------|
A----------------------------------|
E----------------------------------|

"Darating kaya.."

E---0-----0-----0-----0----0----0-----0-----0-----0----0----0----0-----0----0-----0----0---0---|
B-----3-----3-----3-----3---3-----3----3-----3-----3----3----3-----3----3-----3-----3----3--3--|
G----------------------------------------------------------------------------------------------|
D-0-----0----0-----0-----0---------------------------------------------------------------------| pause
A-----------------------------2-----2-----2-----2-----2----------------------------------------|
E--------------------------------------------------------------3------3----3-----3-----3-------|

REPEAT CHORUS THEN REPEAT LAST TWO LINES OF THE CHORUS

END!!

FIRST TAB KO TO KAYA MAY KONTING ERROR SIGURO..
Need a guitar player for the band? Contact nyo me baka pwede me mag-aply.. hehe

PAKI RATE THIS TAB KAMIKAZEE FANATIC HERE..
PA ADD SA FRIENDSTER = friendster@jof328.com
Comments