Kamikazee - Mmm Sarap Chords & Tabs

 

Mmm Sarap Chords & Tabs

Kamikazee Chords & Tabs

Version: 2 Type: Tab 0 ratings
1 star 2 stars 3 stars 4 stars 5 stars
comments

Mmm Sarap Tab

Song: mmm...sarrap!!!
Band: Kamikazee
Album: kamikazee
Standard tuning (EBGDAE)
Any comment? jeph_30@yahoo.com / 09272212013	
R O C k   O N !!! !!!

----------------------------------------------------------------------|
----------------------------------------------------------------------|
----999999999999------------------------------------------------------|
----999999999999------------------------------------------------------|
----777777777777------------------------------------------------------|
----------------------------------------------------------------------|

intro/chorus:				   
gtr. 1					   |palm mute|
----------------------------------------------------------------------|
----------------------------------------------------------------------|
-------------66666666-1111111111111111-7777--9999---------------------|
----77777777-66666666-1111111111111111-7777--9999---------------------|
----77777777-44444444-9-9-9-9-9-9-9-9--5555--7777---------------------|
----55555555----------------------------------------------------------|

gtr. 2				|palm mute|
----------------------------------------------------------------------|
----------------------------------------------------------------------|
----9--------1111111111111111-7777--9999------------------------------|
----9-(16x)--1111111111111111-7777--9999------------------------------|
----7--------9-9-9-9-9-9-9-9--5555--7777------------------------------|
----------------------------------------------------------------------|

pre-verse:
----------------------------------------------------------------------|
---------7h97h9-7h9-7h9----------------------------------------------|
----99------9---9---9----7-9------------------------------------------|
----------------------------------------------------------------------|
----------------------------------------------------------------------|
----------------------------------------------------------------------|

verse 1:
----------------------------------------------------------------------|
----5--7--9--7--55--545----55---55---5--7--9--7--55--545--------------|
---------------------------66---66------------------------------------|
----------------------------------------------------------------------|
----------------------------------------------------------------------|
----------------------------------------------------------------------|

di ko mapigilang ngumiti pag ika'y nakikita...
----------------------------------------------------------------------|
----55---55---77-----9---7-9-9-7-9------------------------------------|
----66---66---77------------------------------------------------------|
----------------------------------------------------------------------|
----------------------------------------------------------------------|
----------------------------------------------------------------------|




interlude:
----------------------------------------------------------------------|
----5555554-5-5----7--5-4-5-----7--5-4-5----5-4-5---------------------|
-----------------4------------4------------------------------(2x)-----|
----------------------------------------------------------------------|
----------------------------------------------------------------------|
----------------------------------------------------------------------|



verse 2:
para bang namamasyal sa ulap...
----------------------------------------------------------------------|
----55---55---77-----9---7-9-9-7-9------------------------------------|
----66---66---77------------------------------------------------------|
----------------------------------------------------------------------|
----------------------------------------------------------------------|
----------------------------------------------------------------------|

chorus:
kaysarap isipin...
gtr. 1					   |palm mute|
----------------------------------------------------------------------|
----------------------------------------------------------------------|
-------------66666666-1111111111111111-7777--9999---------------------|
----77777777-66666666-1111111111111111-7777--9999---------------------|
----77777777-44444444-9-9-9-9-9-9-9-9--5555--7777---------------------|
----55555555----------------------------------------------------------|

gtr. 2				|palm mute|
----------------------------------------------------------------------|
----------------------------------------------------------------------|
----9--------1111111111111111-7777--9999------------------------------|
----9-(16x)--1111111111111111-7777--9999------------------------------|
----7--------9-9-9-9-9-9-9-9--5555--7777------------------------------|
----------------------------------------------------------------------|

pre-verse:
----------------------------------------------------------------------|
---------7h97h9-7h9-7h9----------------------------------------------|
----99------9---9---9----7-9------------------------------------------|
----------------------------------------------------------------------|
----------------------------------------------------------------------|
----------------------------------------------------------------------|
[ Tab from: http://www.guitartabs.cc/tabs/k/kamikazee/mmm_sarap_tab_ver_2.html ]
verse 3:
----------------------------------------------------------------------|
----5--7--9--7--55--545----55---55---5--7--9--7--55--545--------------|
---------------------------66---66------------------------------------|
----------------------------------------------------------------------|
----------------------------------------------------------------------|
----------------------------------------------------------------------|





ano ba ang meron ka...
----------------------------------------------------------------------|
----55---55---77-----9---7-9-9-7-9------------------------------------|
----66---66---77------------------------------------------------------|
----------------------------------------------------------------------|
----------------------------------------------------------------------|
----------------------------------------------------------------------|

----------------------------------------------------------------------|
----55---55---77------------------------------------------------------|
----66---66---77-----999999-------------------------------------------|
---------------------999999-7-----------------------------------------|
---------------------777777-7-----------------------------------------|
----------------------------5-----------------------------------------|

----------------------------------------------------------------------|
----55---55---77-----9---7-9-9-7-9-----55---55---77----9--------------|
----66---66---77-----------------------66---66---77-------------------|
----------------------------------------------------------------------|
----------------------------------------------------------------------|
----------------------------------------------------------------------|

repeat chorus

solo:
----------------------------------------------------------------------|
----------------------------------------------------------------------|
----------------------------------------------------------------------|
----7777776-----------------------------------------------------------|
------------7-7---4-4/9--7--5--7-5-7-7/9-77-757-----------------------|
----------------------------------------------------------------------|

----------------------------------------------------------------------|
----------------------------------------------------------------------|
----------------------------------------------------------------------|
----7777776-----------------------------------------------------------|
------------7-7---4-4/9--7--5--7-5-7-7/9-7--777-57--------------------|
----------------------------------------------------------------------|

----------------------------------------------------------------------|
------------------------------------------------9---------------------|
-----------------------------------------9h11-9-----------------------|
----7777777/11-11-11--9-11-11h12-11-9-11------------------------------|
----------------------------------------------------------------------|
----------------------------------------------------------------------|

----------------------------------------------------------------------|
----9-10-99-12-99-10-99-12-99-10-99-12-99-10-99-12--------------------|
----------------------------------------------------------------------|
----------------------------------------------------------------------|
----------------------------------------------------------------------|
----------------------------------------------------------------------|





----------------------------------------------------------------------|
----1010-12-1010-14-1010-12-1010-14-1010-12-1010-14-1010-1212-10-99---|
----------------------------------------------------------------------|
----------------------------------------------------------------------|
----------------------------------------------------------------------|
----------------------------------------------------------------------|

----------------------------------------------------------------------|
------10-----10\---------1010--1010--1010--1010-99-9910---------------|
----9-----------------------------------------------------------------|
----------------------------------------------------------------------|
----------------------------------------------------------------------|
----------------------------------------------------------------------|
fade...

repeat chorus

outro:
----------------------------------------------------------------------|
----------------------------------------------------------------------|
--------------6666-6666-11111111-11111111-777-999---------------------|
----7777-7777-6666-6666-11111111-11111111-777-999---------------------|
----7777-7777-4444-4444-9-9-9-9--9-9-9-9--555-777---------------------|
----5555-5555---------------------------------------------------------|
    |--------------palm mute------------|

----------------------------------------------------------------------|
----------------------------------------------------------------------|
--------------6666-6666-11111111-11111111-777-999---------------------|
----7777-7777-6666-6666-11111111-11111111-777-999---(3x)--------------|
----7777-7777-4444-4444-9-9-9-9--9-9-9-9--555-777---------------------|
----5555-5555---------------------------------------------------------|

----------------------------------------------------------------------|
---------7h97h9-7h9-7h9----------------------------------------------|
----99------9---9---9----7-9------------------------------------------|
----------------------------------------------------------------------|
----------------------------------------------------------------------|
----------------------------------------------------------------------|

**end**
Comments