Kamikazee - Lucky Chords & Tabs

 

Lucky Chords & Tabs

Kamikazee Chords & Tabs

Version: 1 Type: Tab 0 ratings
1 star 2 stars 3 stars 4 stars 5 stars
comments

Lucky Tab

band:kamikaze song title:Lucky album:(self titled)                   
tabbed by:Daryl A.
standard tuned

verses:
*verses are palmuted
*do pickslide in "early morning" in 1st verse
---|---|
---|---|
-7-|-4-|
-7-|-4-|
-5-|-2-|
---|---|

refrain:
--------------------
------------0-0-----
-7-9-11-6-7-7-9-----
-0-0-0--0-0-0-0-----
--------------------
--------------------

chorus:
------------
------------
-7-4-5-7----
-7-4-5-7----
-5-2-3-5----
------------

guitar part after 1st chorus
------------------
------8-7---------
-6/7--7-6-9-7-7---
-6/7------9-7-7---
-4/5----------5---
------------------

guitar part after 2nd chorus
------------------
-----8-7----------
-6h7-7-6-9-7------
-6h7-----9-7------
------------------
------------------

clean guitar part
--------------
--------------
-7-4-----4----
-7-4-5-7-4----
-5-2-5-7-1----
-----3-5------

3rd refrain is diffrent
-------------
-------------
-9-6---------
-9-6-7-9-----
-7-4-7-9-----
-----5-7-----

*do the 3rd chorus same as the 3ed ref.

guitar part after 3rd chorus
----------------------------------------|------------------
----------------------------------------|------------------
-9-9-9-9-6-9-9-9---9-9-9---9-9/11-11-11-|-9-9-9h11-11-11p9-
-9-9-9-9-6-9-9-9-7-9-9-9-9-9-9/11-11-11-|-9-9-9h11-11-11p9-
-7-------4-------7-------9--------------|-7----------------
-----------------5-------7--------------|------------------
[ Tab from: http://www.guitartabs.cc/tabs/k/kamikazee/lucky_tab.html ]
-----------------------------------------------------------
-----------------------------------------------------------
-6-9h11-11-11p9---9h11-11-11p9---9h11-11-11p9--------------
-6-9h11-11-11p9-7-9h11-11-11p9-9-9h11-11-11p9--------------
-4--------------7--------------9---------------------------
----------------5--------------7---------------------------

outro:(lead part)
-----4---5---7---5---4--4h5--4---
-5-5---5---5---5---5----5--------
---------------------------------
---------------------------------
---------------------------------
---------------------------------

ending point
-------
-------
---4---
-7-4---
-7-2---
-5-----

Lyrics:

This is a story about a girl named "LUCKY"

Early morning, she wakes up 
Knock, knock, knock on the door 
It's time for makeup, perfect smile 
It's you they're all waiting for 

"Isn't she lovely
This Hollywood girl?" 

And they say she's so lucky,She's a star 
But she cry, cry, cries in her lonely heart, thinking 
If there's nothing missing in my life 
Then why do these tears come at night 

Lost in an image, in a dream   
But there's no one there to wake her up         
And the world is spinning, and she keeps on winning 
But tell me what happens when it stops? 
"Isn't she lovely
This Hollywood girl?"
 
And they say she's so lucky
She's a star 
But she cry, cry, cries in her lonely heart, thinking 
If there's nothing missing in my life 
Then why do these tears come at night 

Isn't she love - ly, this Hollywood girl? 
She is so lucky, but why does she cry? 
If there's nothing missing in her life 
Why do tears come at night? 


                                     ~end~
Comments