Kamikazee - Lucky Chords & Tabs

 

Lucky Chords & Tabs

Kamikazee Chords & Tabs

Version: 1 Type: Bass Tab 0 ratings
1 star 2 stars 3 stars 4 stars 5 stars
comments

Lucky Bass Tab

Song: Lucky
Artist: Kamikazee
Tabbed by:Spikekikay!!!!!!!!
1st verse:
   Early morning,  she wakes up   theres a knock.on the  door
G-------------------------------------------------------------------|
D-------------------------------------------------------------------|
A--5(Break)--5-5-5-------------------------------------------------|
E-------------------7-7-7-7-7-7-7-7-3-3-3-3-3-3-3-3-5-5-5-5-5-5-5-5-|
   Time for make-up, perfect ...  you they.... for
G-------------------------------------------------------|
D-------------------------------------------------------|
A---5-5-5-5-5-5-5-5-------------------------------------|
E-------------------7-7-7-7-7-7-7-7-3-3-3-3-3-3-3-3-----|
Pre chorus:
   Isnt.... lucky.... Hollywood .. girl                     (solo)
G---------------------------------------                   ----------------|
D---------------------------------------                   ----------------|
A--5-5-5-5-5-5-5-5-----------------------------            ----------------|
E-----------------7-7-7-7-7-7-7-7-3-3-3-3-3-3-3-35(break) -5-3-2-0--------|

Chorus:
    She so..
G-----------------------------------------------------------------|
D-----------------------------------------------------------------|
A--5-5-5-5-5-5-5-5------------------------------------------------| play(2x)
E-----------------7-7-7-7-7-7-7-7-3-3-3-3-3-3-3-3-5-5-5-5-5-5-5-5-|

After chorus 1:
G---------------------------------------|
D---------------------------------------|
A4h5-5-5-5-5-5-5-5--4h5-5-5-5-5-5-5-5-|
E---------------------------------------|

(Play)
Repeat verse 1
Pre chorus
chorus

after chorus 2
G----------------------------|
D----------------------------|
A4h5-5-5-5-5-5-5-5(play(10-|x)
E----------------------------|

Guitar & Bass play together w/o drums:(slow part)
  Isnt.. lucky .. hollywood  girl
G------------------------------------------|
D------------------------------------------|
A--5---------------------------------------|
E----------7--------3-----5-5-5-5-5-5-5-5--|
  Isnt ..   lucky ...  but why .. cry
G-----------------------------------------------------------------|
D-----------------------------------------------------------------|
A5-5-5-5-5-5-5-5-------------------------------------------------|
E-----------------7-7-7-7-7-7-7-7-3-3-3-3-3-3-3-3-5-5-5-5-5-5-5-5-|
  If there.. one thing .. missing .. tears..
G------------------------------------------------------------------|
D------------------------------------------------------------------|
A5-5-5-5-5-5-5-5--------------------------------------------------|
E-----------------7-7-7-7-7-7-7-7-3-3-3-3-3-3-3-3-5-5-5-5-5-5-5-5--|

(Play)
Chorus

Interlude:
G-----------------------|
D-----------------------|
A--5(guitar playing)---| play (2x)
E--------------------7--|(guitar playing)3(guitar playing)5(guitar playing)

Outro:
G------------------------------------------------------------------|
D------------------------------------------------------------------|
A5-5-5-5-5-5-5-5--------------------------------------------------| play(3x)
E----------------7-7-7-7-7-7-7-7-3-3-3-3-3-3-3-3-5-5-5-5-5-5-5-5-5-|

End on
G---------------------|
D---------------------|
A---------------------|
E---7---(let ring)----|

ADAMS SONG (BASS TAB)
G: -------------------------------------|
D: -------------------------------------|
A: -33333333----------00000000----------|
E: ----------11111111----------11111111-|
[ Tab from: http://www.guitartabs.cc/tabs/k/kamikazee/lucky_btab.html ]
G: -------------------------------------|
D: -------------------------------------|
A: -33333333-55555555-00000000----------|
E: ----------------------------11111111-|

G: -------------------------------------|
D: ----------33333333-55555555-33333333-|
A: -33333333----------------------------|
E: -------------------------------------|

G: -------------------------------------|
D: ----------33333333-55555555-777-3333-|
A: -33333333----------------------------|
E: -------------------------------------|

G: ------------------------------------------------------------------|
D: ----------33333333-----------33333333-------33333333-555555557733-|
A: -33333333----------33333333-----------33333333--------------------|
E: ------------------------------------------------------------------|

G: -------------------------------------|
D: -------------------------------------|
A: -3-----------------------------------| (let ring)
E: -------------------------------------|
Guitar first
Riff 1 x 4
dont play
Riff 2 x 5
dont play
Riff 1 x 4
dont play
Riff 2 x 5
Riff 3 x 1
Riff 4 x 1
Riff 3 x 1
Riff 4 x 1
Riff 5 x 1
Riff 2 x 4
Riff 6 x 1

Whats my age again (BASS TAB)
intro
G---------------------------------|
D---------------------------------|
A-2-2-2-2---------4-4-4-4-6-6-6-6-| x 5
E---------2-2-2-2-----------------|

G-------------------------------------------------|
D-------------------------------------------------|
A-2-2-2-2---------4-4-4-4-4-4-4-4-2-2-2-2-2-2-2-2-|
E---------2-2-2-2---------------------------------|
Chorus
G-----------------------------|
D-----------------------------|
A---4-4-----6-6---2-2-2-2-2-2-| x 3
E-2---------------------------|

G---------------------------------------------|
D---------------------------------------------|
A---4-4-----6-6-6-6-6-6-6-6-6-4-4-4-4-4-4-4-4-|
E-2-------------------------------------------|
Verse
G---------------------------------|
D---------------------------------|
A-2-2-2-2---------4-4-4-4-6-6-6-6-| x3
E---------2-2-2-2-----------------|

G-------------------------------------------------|
D-------------------------------------------------|
A-2-2-2-2---------4-4-4-4-4-4-4-4-2-2-2-2-2-2-2-2-|
E---------2-2-2-2---------------------------------|
Chorus
G-----------------------------|
D-----------------------------|
A---4-4-----6-6---2-2-2-2-2-2-| x 3
E-2---------------------------|

G---------------------------------------------|
D---------------------------------------------|
A---4-4-----6-6-6-6-6-6-6-6-6-4-4-4-4-4-4-4-4-|
E-2-------------------------------------------|
Interlude
G-------------------------------------|
D-----8-----8-----6-----6-----4-----4-|
A-6-6---6-6---4-4---4-4---2-2---2-2---| x2
E-------------------------------------|
Chorus
G-----------------------------|
D-----------------------------|
A---4-4-----6-6---2-2-2-2-2-2-| x 3
E-2---------------------------|

G---------------------------------------------|
D---------------------------------------------|
A---4-4-----6-6-6-6-6-6-6-6-6-4-4-4-4-4-4-4-4-|
E-2-------------------------------------------|
Chorus
G-----------------------------|
D-----------------------------|
A---4-4-----6-6---2-2-2-2-2-2-| x 3
E-2---------------------------|

G---------------------------------------------|
D---------------------------------------------|
A---4-4-----6-6-6-6-6-6-6-6-6-4-4-4-4-4-4-4-4-|
E-2-------------------------------------------|

Have a Fun!
Im Dids ngapala!
Good Luck!
Comments