Kamikazee - Hanggang Tingin Chords & Tabs

 

Hanggang Tingin Chords & Tabs

Kamikazee Chords & Tabs

Version: 1 Type: Bass Tab

Hanggang Tingin Bass Tab

hanggang tingin by:kamikazee

by:FG5bass

intro:

|--------------------------------------------------------|
|--------------------------------------------------------|
|----------------------------------------------------7~--|
|-9-7-55-77-99-9-7-55-77-99-9-7-5x5x-77-99-9-7-55-77-----|


verse:

handa ng sasabihin....

|-----------------------------------------------|
|-----------------------------------------------|
|---------------777-77------------77~--777777---|
|-555-55-777-77---------555-5-555---------------|


sabi mo sa akin..

|-------------------------|
|-------------------------|
|-------------77777-------|
|-55555-77777-------55555-|2x


|-------------------------|
|-------------------------|
|-------------777-----7~--|
|-555-777-999-----9s7-----|


chorus:
pahamak yan si kupido...

|---------------------------------------|
|---------------------------------------|
|-77777777------------------------------|
|----------99999999-5555555555555555----|2x


|--------------------------|
|--------------------------|
|----------------------7~--|
|-555-777-99-9-7-55-77-----|


repeat verse:
repeat chorus:

|------------|
|------------|
|------------|
|-555-77-99--|
[ Tab from: http://www.guitartabs.cc/tabs/k/kamikazee/hanggang_tingin_btab.html ]
|-----------------------------------------------|
|-----------------------------------------------|
|----------------------------------------7~-----|
|-9-7-55-77-99-9-7-5x5x-77-99-9-7-55-77----7~-5~|


|----------------------|
|----------------------|
|-777-----777-----777--|
|----------------------|


|-------------------|
|-------------------|
|---------7-7-7-7---|
|-2-4-2-0-----------|2x


|--------------------------------|
|--------------------------------|
|---------7^-7^-7^-7^-777-7-7-7^-|
|-2-4-2-0------------------------|


|-----------------------|
|-----------------------|
|---------7^-7^-7^-7^---|
|-2-4-2-0---------------|


|------------------|
|------------------|
|---------77777777-|
|-2-4-2-0----------|


|-------------------------|
|-------------------------|
|-------------777-----7~--|
|-555-777-999-----9s7-----|



pahamak yan si kupido...

|---------------------------------------|
|---------------------------------------|
|-77777777------------------------------|
|----------99999999-5555555555555555----|2x


|------------|
|------------|
|------------|
|-555-77-99--|


|---------------------------------------------|
|---------------------------------------------|
|-----------------------------------------7~--|
|-9-7-55-77-99-9-7-5x5x-77-99-9-7-5x5x-77-----|

enjoy :))



binabati ko nga pla ung FG5 :)
jeh,ken,ven,rei,ehm :D

-jof