Kamikazee - Girlfriend Chords & Tabs

 

Girlfriend Chords & Tabs

Kamikazee Chords & Tabs

Version: 4 Type: Tab 0 ratings
1 star 2 stars 3 stars 4 stars 5 stars
comments

Girlfriend Tab

Song: Girlfriend
Band: Kamikazee
Album: Kamikazee

intro:
E---------------------------------------------------------------------|
B---------------------------------------------------------------------|
G---------------------------------------------------------------------|
D----77-xxxx-77-xxxx--------------------------------------------------|
A----77-xxxx-77-xxxx--------------------------------------------------|
E----55-xxxx-55-xxxx--------------------------------------------------|

gtr 1							gtr 2
E----------------------------------------|----------------------------|
B----------------------------------------|----------------------------|
G----77777777-77777777-------------------|--------77------------------|
D----77777777-77777777-99999999-77777777-|-----77----77-55-44-55-77---|
A----55555555-44444444-99999999-77777777-|--55------------------------|
E----------------------77777777-55555555-|----------------------------|

E----------------------------------------|----------------------------|
B----------------------------------------|----------------------------|
G----77777777-77777777-------------------|---7------let---------------|
D----77777777-77777777-99999999-77777777-|---7------ring--------------|
A----55555555-44444444-99999999-77777777-|---5------------------------|
E----------------------77777777-55555555-|----------------------------|

Verse:
E---------------------------------------------------------------------|
B---------------------------------------------------------------------|
G----77777777-77777777------------------------------------------------|
D----77777777-77777777-99999999-77777777------------------------------|
A----55555555-44444444-99999999-77777777------------------------------|
E----------------------77777777-55555555------------------------------|
p.m.************************************

E---------------------------------------------------------------------|
B---------------------------------------------------------------------|
G----77777777-77777777------------------------------------------------|
D----77777777-77777777-99999999-77777777------------------------------|
A----55555555-44444444-99999999-77777777------------------------------|
E----------------------77777777-55555555------------------------------|

E---------------------------------------------------------------------|
B---------------------------------------------------------------------|
G----77777777-77777777------------------------------------------------|
D----77777777-77777777-99999999-77777777------------------------------|
A----55555555-44444444-99999999-77777777------------------------------|
E----------------------77777777-55555555------------------------------|
p.m.************************************

E---------------------------------------------------------------------|
B---------------------------------------------------------------------|
G----77777777-77777777------------------------------------------------|
D----77777777-77777777-99999999-77777777------------------------------|
A----55555555-44444444-99999999-77777777------------------------------|
E----------------------77777777-55555555------------------------------|
Interlude:
E----------------------------------------|----------------------------|
B----------------------------------------|----------------------------|
G----77777777-77777777-------------------|--------77------------------|
D----77777777-77777777-99999999-77777777-|-----77----77-55-44-55-77---|
A----55555555-44444444-99999999-77777777-|--55------------------------|
E----------------------77777777-55555555-|----------------------------|

E----------------------------------------|----------------------------|
B----------------------------------------|----------------------------|
G----77777777-77777777-------------------|---7------let---------------|
D----77777777-77777777-99999999-77777777-|---7------ring--------------|
A----55555555-44444444-99999999-77777777-|---5------------------------|
E----------------------77777777-55555555-|----------------------------|

Repeat verse

Chorus 1:
E----------------------------------------|----------------------------|
B----------------------------------------|----------------------------|
G----77777777-77777777-------------------|--------77------------------|
D----77777777-77777777-99999999-77777777-|-----77----77-55-44-55-77---|
A----55555555-44444444-99999999-77777777-|--55------------------------|
E----------------------77777777-55555555-|----------------------------|
[ Tab from: http://www.guitartabs.cc/tabs/k/kamikazee/girlfriend_tab_ver_4.html ]
bridge:
E---------------------------------------------------------------------|
B---------------------------------------------------------------------|
G----7--------------------------------------------let-----------------|
D----7-------5-------9--------7-------------------ring----------------|
A----5-------5-------9--------7---------------------------------------|
E------------3-------7--------5---------------------------------------|

E-------------------------------------------------------------|<
B-------------------------------------------------------------|<
G-------2----2---2----2----2---2----2----2---2----2----2---2--|<
D----00---00---0---00---00---0--------------------------------|< play
A-------------------------------------------------------------|<
E--------------------------------33---33---3---33---33---3----|< this
										   <		
E-------------------------------------------------------------|< part
B-------------------------------------------------------------|<
G-------2----2---2----2----2---2----2----2---2----2----2---2--|< twice
D-------------------------------------------------------------|<
A----22---22---2---22---22---2---00---00---0---00---00---0----|<
E-------------------------------------------------------------|<

E-------------------------------------------------------------|<
B-------3----3---3----3----3---3----3----3---3----3----3---3--|<
G-------------------------------------------------------------|
							
													
Comments