Kamikaze - Dejame Ser Chords & Tabs

 

Dejame Ser Chords & Tabs

Kamikaze Chords & Tabs

Version: 1 Type: Tab 0 ratings
1 star 2 stars 3 stars 4 stars 5 stars
comments

Dejame Ser Tab

   
DEJAME SER
KAMIKAZE

Main Riff:
e----------------------------/
B----------------------------/
G----------------------------/
D----------------------------/
A--0--0--3--0--3--0--3--5--3-/
E----------------------------/

A: Main Riff
   No creo en nada de lo que esta pasando
   Main Riff
   Todo es falso y de otro color
   Main Riff
   No se que cosas estas pensando 
   Main Riff
   Yo solo quiero paz y amor.
[ Tab from: http://www.guitartabs.cc/tabs/k/kamikaze/dejame_ser_tab.html ]
B: C    D
   Ahhhh
          A
   Dejame Ser
   C    D
   Ahhhh
          A
   Dejame Ser

A: Main Riff
   No quiero ver peces caminando
   Main Riff
   Ni que la lluvia valla hacia el sol
   Main Riff
   Cosas que no entiendo pero estan pasando
   Main Riff
   Pronto estaran fuera de control

B: Same verse

Solo:

e--------------------------------------------------
B--------------------------------------5-8-5-------
G------5-7-5---------5-7-5---------5-7-------7-5---
D--5-7-------7---5-7-------7---5-7-----------------
A--------------------------------------------------
E--------------------------------------------------
Comments