Kamelot - A Sailormans Hymn Chords & Tabs

 

A Sailormans Hymn Chords & Tabs

Kamelot Chords & Tabs

Version: 1 Type: Tab 0 ratings
1 star 2 stars 3 stars 4 stars 5 stars
comments

A Sailormans Hymn Tab

A SAILORMAN'S HYMM -- KAMELOT
Off the album The Fourth Legacy

Transcribed By Andrew Senkus

NOTES : This song is played on an acoustic guitar for the recorded version
(the one I tabbed) and Thom uses his fingers for picking. The live version
is
done on an electric guitar and Thom uses distortion. It is tuned down a half
step. I don't have the middle part with piano and guitar, Sorry. Listen to
the song, it will help you out a lot with the timings and stuff. Comments or
Suggestions? E-mail me at triumphajs@aol.com

INTRO / VERSE
                                                    1st       2nd
1st/2nd Time                            ___       ___
|-7---7---7---7---|-5---5---5---5---|-3---3---3---3---|-2--3--5-|--3--
|---8---8---8---8-|---7---7---7---7-|---5---5---5---5-|-3--5--7-|--5--
|-----------------|-----------------|-----------------|---------|-----
|-----------------|-----------------|-----------------|---------|-----
|-----------------|-----------------|-----------------|---------|-----
|-----------------|-----------------|-----------------|---------|-----

3rd Time
-7---7---7---7---|-5---5---5---5---|-3---3---3---3---|-2--3--5----
---8---8---8---8-|---7---7---7---7-|---5---5---5---5-|-3--5--7----
-----------------|-----------------|-----------------|------------
-----------------|-----------------|-----------------|------------
-----------------|-----------------|-----------------|------------
-0---------------|-0---------------|-0---------------|------------
[ Tab from: http://www.guitartabs.cc/tabs/k/kamelot/a_sailormans_hymn_tab.html ]
4th Time
-7---7---7---8---|-5---5---5---7---|-3---3---5--3--2--3---|
---8---8---8---8-|---7---7---7---7-|---5------------------|
-----------------|-----------------|----------------------|
-----------------|-----------------|----------------------|
-----------------|-----------------|----------------------|
-0---------------|-0---------------|-0--------------------|

PRE - CHORUS

1st - 4th Time
|---------------------------------------------------|
|-------0-----------0-----------0-----------0-------|
|-----0---0-------0---0-------0---0-------0---0-----|
|---5-------5---5-------5---4-------4---2-------2---|

|-3-----------3-----------2-------------------------|
|-------------------------------------0-------------|

4th Time Ending
|--------------------------|
|-------0-----------0------|
|-----0---0-------0---0----|

|---7-------7---7-------7--|
|-5-----------6------------|
|--------------------------|





CHORUS                                         1 and 3        2nd
                                               ___            ___
|---------0------------0---------2------|-------0-----|----------------
|-------0---0--------0---------3---3----|-----0---0---|--------0-------
|-----0-------0----0---------2-------2--|---0-------0-|------0---0-----
|---2----------------------0------------|-2-----------|----0-------0---
|----------------3----------------------|-------------|----------------
|---------------------------------------|-------------|-3--------------

4th Time Ending : Back to Intro


That's all Folks! Like I said, listen to the CD, it will help with the song
order, timings, etc...Thanks!
Comments