Kalmah - Heroes To Us Chords & Tabs

 

Heroes To Us Chords & Tabs

Kalmah Chords & Tabs

Version: 3 Type: Tab

Heroes To Us Tab

this is my first tab but its 100% right.
Tabbed by Sam Kapoh
any questions email to hatecrew_sam@msn.com

e----------------------------------------|
a----------------------------------------|
d--7-------------------------------------|
g--7--10-7-10-9-7---7--------------------|
b--5--------------10---------------------|
e----------------------------------------|
[ Tab from: http://www.guitartabs.cc/tabs/k/kalmah/heroes_to_us_tab_ver_3.html ]
e----------------------------------------|
a----------------10----8-----------------|
d--77--10-7-9-10----10---9---------------|
g--77------------------------------------|
b--55------------------------------------|
e----------------------------------------|

e----------------------------------------|
a----------------------------------------|
d--7-------------------------------------|
g--7--10-7-10-9-7---7--------------------|
b--5--------------10---------------------|
e----------------------------------------|

thats it for now il finish it later.