Kalmah - Heroes To Us Chords & Tabs

 

Heroes To Us Chords & Tabs

Kalmah Chords & Tabs

Version: 2 Type: Tab 0 ratings
1 star 2 stars 3 stars 4 stars 5 stars
comments

Heroes To Us Tab

   
|---|-----------------|-----|---------------------|     _ 2 guitars  
|---|-----------------|-----|------------12--10---|     . palm mute
|---|12-9-12-11-9\7-9-|-----|-12-9-11-12---12--11-|     ^ bend
|-2-|-----------------|-2-2-|---------------------|     * harmonic
|-2-|-----------------|-2-2-|---------------------|    g1 guitar 1
|-0-|-----------------|-0-0-|---------------------|    g2 guitar 2
                        .
 g2         g1           g2            g1
|---|-----------------|---------------------|
|---|-----------------|-5---5---7---7-------|
|---|12-9-12-11-9\7-9-|---7---7---9---9-----|
|-2-|-----------------|_____________________|
|-2-|-----------------|--2-2-2-2-4-4-4-4----|
|-0-|-----------------|__0_0_0_0_2_2_2_2____|
 g2         g1                 g1|g2
[ Tab from: http://www.guitartabs.cc/tabs/k/kalmah/heroes_to_us_tab_ver_2.html ]
|---|-----------------|-----|---------------------|       
|---|-----------------|-----|------------12-------|     
|---|12-9-12-11-9\7-9-|-----|-12-9-11-12---12-7^*-|     
|-2-|-----------------|-2-2-|---------------------|     
|-2-|-----------------|-2-2-|---------------------|    
|-0-|-----------------|-0-0-|---------------------|
                        .
  g2       g1            g2          g1
|---|-----------------|---------------------|
|---|-----------------|-5---5---7---7-------|
|---|12-9-12-11-9\7-9-|---7---7---9---9-----|
|-2-|-----------------|_____________________|
|-2-|-----------------|--2-2-2-2-4-4-4-4----|
|-0-|-----------------|__0_0_0_0_2_2_2_2____|
  g2      g1                  g1|g2

|------------------|----------------------|      
|------------------|-------------12--10---|     
|-12-9-12-11-9\7-9-|--12-9-11-12---12--11-|     
|__________________|______________________|     
|--222-2-2222-222--|----222-2-2222-222----|    
|__000_0_0000_000__|____000_0_0000_000____|
   ... . .... ...       ... . .... ...  
  g2|g1                g2|g1 

|------------------|--------------------|       
|------------------|--5---5---7---7-----|     
|-12-9-12-11-9\7-9-|----7---7---9---9---|
|__________________|____________________|     
|--222-2-2222-222--|--222-2-2222-222----|    
|__000_0_0000_000__|__000_0_0000_000____|
   ... . .... ...     ... . .... ... 
     g2|g1                g2|g1 

|------------------|----------------------|       
|------------------|-------------12-------|     
|-12-9-12-11-9\7-9-|--12-9-11-12---12-7^*-| 
|__________________|______________________|     
|--222-2-2222-222--|---222-2-2222-222-----|    
|__000_0_0000_000__|___000_0_0000_000_____|
   ... . .... ...      ... . .... ...
      g2|g1                g2|g1 

|------------------|--------------------|       
|------------------|--5---5---7---7-----|     
|-12-9-12-11-9\7-9-|----7---7---9---9---|
|__________________|____________________|     
|--222-2-2222-222--|--222-2-2222-222----|    
|__000_0_0000_000__|__000_0_0000_000____|
   ... . .... ...     ... . .... ... 
      g2|g1                g2|g1
Comments