Kalmah - Heroes To Us Chords & Tabs

 

Heroes To Us Chords & Tabs

Kalmah Chords & Tabs

Version: 1 Type: Tab 0 ratings
1 star 2 stars 3 stars 4 stars 5 stars
comments

Heroes To Us Tab

Kalmah - Heroes To Us
 Guitare
 X4

/---------------------------------------------------------------|
/---------------------------------------------------------------|
/----------------------------------------------9----7-----------|
/------------7-10--9-10-9-7----7-----10--9-10---10---9---------|
/---------------------------10----------------------------------|
/---------------------------------------------------------------|
[ Tab from: http://www.guitartabs.cc/tabs/k/kalmah/heroes_to_us_tab.html ]
 Guitare 2  sur guitare un
/---------------------------------------------------------------|
/---------------------------------------------------------------|
/---------------------------------------------------------------|
/---------------------------------------------------------------|
/--5-5--------(5)-----------------5-5---------(5)----------5----|
/--7-7--------(7)-----------------7-7---------(7)----------7----|

Le Reste buche trop pas grand personne seraient capable!
Comments