Kalapana - You Look Wonderful Tonight Chords & Tabs

 

You Look Wonderful Tonight Chords & Tabs

Kalapana Chords & Tabs

Version: 1 Type: Tab 0 ratings
1 star 2 stars 3 stars 4 stars 5 stars
comments

You Look Wonderful Tonight Tab

   
Hey there people this is Wonderful tonight
By:
Kalapana--original: Eric Clapton

Wonderful Tonight

intro
e-----------------------------------------------------------|
b-----------------------------------------------------------|
g--14b--r14--12-14~~--14b--r14--12--------14b--r14--12--14--|
d-----------------------------------14~~--------------------|
a-----------------------------------------------------------|
e-----------------------------------------------------------|

e-----------------------------------------------------------|
b-----------------------------------------------------------|
g--------/12---------14b--r14--12--14~--14b--r14--12--------|
d-12--14------14~~------------------------------------14~~--|
a-----------------------------------------------------------|
e-----------------------------------------------------------|

e------------------------------------------|
b----------------------12--13--/17v--15~~--|
g--14b--r14--12--14~~----------------------|
d------------------------------------------|
a------------------------------------------|
e------------------------------------------|

[ Tab from: http://www.guitartabs.cc/tabs/k/kalapana/you_look_wonderful_tonight_tab.html ]
Verse :
  G               D          C                        D
e---------------3-----2------------------0----------------2---------|
b-------3----3------3---3----------1--------1---------3-----3-------|
g-----0---0-------0-------2----------0------------------2--------2--|
d---0----------------------------2-------------2---0-----------0----|
a-2--------------------------0h3------------------------------------|
e(3)----------------------------------------------------------------|
  
  C                        Bm5          Em
e------------------1--------------------2------------|
b--------------1-----------------3-------------0-----|
g----------------0-------------4---4-------------0---|
d-----------2----------------4-------4-------2-------|
a--0-2-3-------------------2---------------2---------|
e--------------------------2-------------0-----------|

  C 		       D               G	
e----------------------------2---------------3--|
b---------------1----------3-----3-------3------|
g-----------------0------2-----2-------0---3----|
d------------2---------0---------------0--------|
a--0--2--3-----------------------------2--------|
e-----------------------------------------------|

fill 1 :
e------------------|
b--/17--12---------|
g-----------15~---|
d------------------|
a------------------|
e------------------|

solo :
e-----------------------------------------------------------|
b------------------------15----------------15b-15b--12------|
g--14b-r14-12--14~~--14b----14b-r14-12~~---------------14~~-|
d-----------------------------------------------------------|
a-----------------------------------------------------------|
e-----------------------------------------------------------|

e---------------------------------------|
b---------------------------------------|
g-14b-r14-12--14~~--14b--r14--12--------|
d--------------------------------14~~~--|
a---------------------------------------|
e---------------------------------------|

e------------------------------------------|
b------------------------12--13--/17v--15~-|
g--14b--r14--12--14~~-14-------------------|
d------------------------------------------|
a------------------------------------------|
e------------------------------------------|


Enjoy
(Tab #3)
Comments