Kaiser Chiefs - Na Na Na Na Naa Chords & Tabs

 

Na Na Na Na Naa Chords & Tabs

Kaiser Chiefs Chords & Tabs

Version: 1 Type: Tab 1 rating
1 star 2 stars 3 stars 4 stars 5 stars
comments

Na Na Na Na Naa Tab

   
NA NA NA NA NAA – KAISER CHIEFS


I may be an “old codger” who, musically, belongs to the 60’s and 70’s but I do like Kaiser Chiefs
a lot – they play good rock music, and with a lot of humour.

This is a favourite of my sons, Tom and Dominic. I pity kids today – they can’t rebel against
their parents with their music like we could in the 60’s because their parents are too busy
enjoying the same music!!

John L Heather
Leamington Spa
UK


E-------------------------------------------------|----------------------------------------------------
B-------------------------------------------------|----------------------------------------------------
G-------------------------------------------------|----------------------------------------------------
D-------------------------------------------------|----------------------------------------------------
A-------------------------------------------------|----------------------------------------------------
E----0-0-0-0-0-0-0-0-0-0-0-0-0-0-0-0------|-----0-0-0-0-0-0-0-0-0-0-0-0-0-0-0-0--------
       Na na na na naa,				   Na na na na naa,

         E						   E
E-------------------------------------------------|------------------------------------------------------
B-------------------------------------------------|------------------------------------------------------
G----1-1-1-1-1-1-1-1-1-1-1-1-1-1-1-1-----|-------1-1-1-1-1-1-1-1-1-1-1-1-1-1-1-1--------
D----2-2-2-2-2-2-2-2-2-2-2-2-2-2-2-2-----|-------2-2-2-2-2-2-2-2-2-2-2-2-2-2-2-2--------
A----2-2-2-2-2-2-2-2-2-2-2-2-2-2-2-2-----|-------2-2-2-2-2-2-2-2-2-2-2-2-2-2-2-2--------
E-------------------------------------------------|------------------------------------------------------
        Na na na na naa,                                    	    Na na na na naa
                
       A						   A
E--------------------------------------------------|-------------------------------------------------------
B----2-2-2-2-2-2-2-2-2-2-2-2-2-2-2-2------|------2-2-2-2-2-2-2-2-2-2-2-2-2-2-2-2----------
G----2-2-2-2-2-2-2-2-2-2-2-2-2-2-2-2------|------2-2-2-2-2-2-2-2-2-2-2-2-2-2-2-2----------
D----2-2-2-2-2-2-2-2-2-2-2-2-2-2-2-2------|------2-2-2-2-2-2-2-2-2-2-2-2-2-2-2-2----------
A-------------------------------------------------|--------------------------------------------------------
E--------------------------------------------------|-------------------------------------------------------
       It does not move me,			   It does not get me going at all,


        E						   E
E-------------------------------------------------|------------------------------------------------------
B-------------------------------------------------|------------------------------------------------------
G----1-1-1-1-1-1-1-1-1-1-1-1-1-1-1-1-----|-------1-1-1-1-1-1-1-1-1-1-1-1-1-1-1-1--------
D----2-2-2-2-2-2-2-2-2-2-2-2-2-2-2-2-----|-------2-2-2-2-2-2-2-2-2-2-2-2-2-2-2-2--------
A----2-2-2-2-2-2-2-2-2-2-2-2-2-2-2-2-----|-------2-2-2-2-2-2-2-2-2-2-2-2-2-2-2-2--------
E-------------------------------------------------|------------------------------------------------------
        Na na na na naa,                                    	    Na na na na naa




       A						   A
E--------------------------------------------------|-------------------------------------------------------
B----2-2-2-2-2-2-2-2-2-2-2-2-2-2-2-2------|------2-2-2-2-2-2-2-2-2-2-2-2-2-2-2-2----------
G----2-2-2-2-2-2-2-2-2-2-2-2-2-2-2-2------|------2-2-2-2-2-2-2-2-2-2-2-2-2-2-2-2----------
D----2-2-2-2-2-2-2-2-2-2-2-2-2-2-2-2------|------2-2-2-2-2-2-2-2-2-2-2-2-2-2-2-2----------
A-------------------------------------------------|--------------------------------------------------------
E--------------------------------------------------|-------------------------------------------------------
       It does not shift me,			   It‘s not the kind of thing that I like.


       E						   E
E-------------------------------------------------|------------------------------------------------------
B-------------------------------------------------|------------------------------------------------------
G----1-1-1-1-1-1-1-1-1-1-1-1-1-1-1-1-----|-------1-1-1-1-1-1-1-1-1-1-1-1-1-1-1-1--------
D----2-2-2-2-2-2-2-2-2-2-2-2-2-2-2-2-----|-------2-2-2-2-2-2-2-2-2-2-2-2-2-2-2-2--------
A----2-2-2-2-2-2-2-2-2-2-2-2-2-2-2-2-----|-------2-2-2-2-2-2-2-2-2-2-2-2-2-2-2-2--------
E-------------------------------------------------|------------------------------------------------------
        Na na na na naa,                                    	    Na na na na naa


       B                				     A
E----2-2-2-2-2-2-2-2-2-2-2-2-2-2-2-2------|------------------------------------------------------
B----4-4-4-4-4-4-4-4-4-4-4-4-4-4-4-4------|------2-2-2-2-2-2-2-2-2-2-2-2-2-2-2-2---------
G----4-4-4-4-4-4-4-4-4-4-4-4-4-4-4-4------|------2-2-2-2-2-2-2-2-2-2-2-2-2-2-2-2---------
D----4-4-4-4-4-4-4-4-4-4-4-4-4-4-4-4------|------2-2-2-2-2-2-2-2-2-2-2-2-2-2-2-2---------
A-------------------------------------------------|--------------------------------------------------------
E-------------------------------------------------|-------------------------------------------------------
      It does not move me, It’s not…….		    the kind of thing that I like.


         E						   E
E-------------------------------------------------|------------------------------------------------------
B-------------------------------------------------|------------------------------------------------------
G----1-1-1-1-1-1-1-1-1-1-1-1-1-1-1-1-----|-------1-1-1-1-1-1-1-1-1-1-1-1-1-1-1-1--------
D----2-2-2-2-2-2-2-2-2-2-2-2-2-2-2-2-----|-------2-2-2-2-2-2-2-2-2-2-2-2-2-2-2-2--------
A----2-2-2-2-2-2-2-2-2-2-2-2-2-2-2-2-----|-------2-2-2-2-2-2-2-2-2-2-2-2-2-2-2-2--------
E-------------------------------------------------|------------------------------------------------------
        Na na na na naa,                                    	    Na na na na naa


       A						   A
E--------------------------------------------------|-------------------------------------------------------
B----2-2-2-2-2-2-2-2-2-2-2-2-2-2-2-2------|------2-2-2-2-2-2-2-2-2-2-2-2-2-2-2-2----------
G----2-2-2-2-2-2-2-2-2-2-2-2-2-2-2-2------|------2-2-2-2-2-2-2-2-2-2-2-2-2-2-2-2----------
D----2-2-2-2-2-2-2-2-2-2-2-2-2-2-2-2------|------2-2-2-2-2-2-2-2-2-2-2-2-2-2-2-2----------
A-------------------------------------------------|--------------------------------------------------------
E--------------------------------------------------|-------------------------------------------------------
       She does not lis-ten, She’s……		   too wrapped up with all of her things.




       E						   E
E-------------------------------------------------|------------------------------------------------------
B-------------------------------------------------|------------------------------------------------------
G----1-1-1-1-1-1-1-1-1-1-1-1-1-1-1-1-----|-------1-1-1-1-1-1-1-1-1-1-1-1-1-1-1-1--------
D----2-2-2-2-2-2-2-2-2-2-2-2-2-2-2-2-----|-------2-2-2-2-2-2-2-2-2-2-2-2-2-2-2-2--------
A----2-2-2-2-2-2-2-2-2-2-2-2-2-2-2-2-----|-------2-2-2-2-2-2-2-2-2-2-2-2-2-2-2-2--------
E-------------------------------------------------|------------------------------------------------------
        Na na na na naa,                                    	    Na na na na naa

        A						   A
E--------------------------------------------------|-------------------------------------------------------
B----2-2-2-2-2-2-2-2-2-2-2-2-2-2-2-2------|------2-2-2-2-2-2-2-2-2-2-2-2-2-2-2-2----------
G----2-2-2-2-2-2-2-2-2-2-2-2-2-2-2-2------|------2-2-2-2-2-2-2-2-2-2-2-2-2-2-2-2----------
D----2-2-2-2-2-2-2-2-2-2-2-2-2-2-2-2------|------2-2-2-2-2-2-2-2-2-2-2-2-2-2-2-2----------
A-------------------------------------------------|--------------------------------------------------------
E--------------------------------------------------|-------------------------------------------------------
       This does not get to me, She’s…….		     not the kind of girl that I like.


       E						   E
E-------------------------------------------------|------------------------------------------------------
B-------------------------------------------------|------------------------------------------------------
G----1-1-1-1-1-1-1-1-1-1-1-1-1-1-1-1-----|-------1-1-1-1-1-1-1-1-1-1-1-1-1-1-1-1--------
D----2-2-2-2-2-2-2-2-2-2-2-2-2-2-2-2-----|-------2-2-2-2-2-2-2-2-2-2-2-2-2-2-2-2--------
A----2-2-2-2-2-2-2-2-2-2-2-2-2-2-2-2-----|-------2-2-2-2-2-2-2-2-2-2-2-2-2-2-2-2--------
E-------------------------------------------------|------------------------------------------------------
        Na na na na naa,                                    	    Na na na na naa,……………Oooooh

       B                				    A
E----2-2-2-2-2-2-2-2-2-2-2-2-2-2-2-2------|------------------------------------------------------
B----4-4-4-4-4-4-4-4-4-4-4-4-4-4-4-4------|------2-2-2-2-2-2-2-2-2-2-2-2-2-2-2-2---------
G----4-4-4-4-4-4-4-4-4-4-4-4-4-4-4-4------|------2-2-2-2-2-2-2-2-2-2-2-2-2-2-2-2---------
D----4-4-4-4-4-4-4-4-4-4-4-4-4-4-4-4------|------2-2-2-2-2-2-2-2-2-2-2-2-2-2-2-2---------
A-------------------------------------------------|--------------------------------------------------------
E-------------------------------------------------|-------------------------------------------------------
      She does not move me, She’s…..	                 not the kind of girl that I like.


         E						   E
E-------------------------------------------------|------------------------------------------------------
B-------------------------------------------------|------------------------------------------------------
G----1-1-1-1-1-1-1-1-1-1-1-1-1-1-1-1-----|-------1-1-1-1-1-1-1-1-1-1-1-1-1-1-1-1--------
D----2-2-2-2-2-2-2-2-2-2-2-2-2-2-2-2-----|-------2-2-2-2-2-2-2-2-2-2-2-2-2-2-2-2--------
A----2-2-2-2-2-2-2-2-2-2-2-2-2-2-2-2-----|-------2-2-2-2-2-2-2-2-2-2-2-2-2-2-2-2--------
E-------------------------------------------------|------------------------------------------------------
        Na na na na naa,                                    	    Na na na na naa



[ Tab from: http://www.guitartabs.cc/tabs/k/kaiser_chiefs/na_na_na_na_naa_tab.html ]


GUITAR SOLO                

E-------0--2--3b---3b---3b---3b-------------|--------4p--2--0--2--0------------------------------
B----0------------------------------------------|-------------------------------------------------------
G-----------------------------------------------|-------------------------------------------------------
D-----------------------------------------------|--------------------------------------------------------
A-----------------------------------------------|-------------------------------------------------------
E-----------------------------------------------|--------------------------------------------------------

    
E-------0--2--3b---3b---3b---7--------------|--------4p--2--0--2--0------------------------------
B----0------------------------------------------|-------------------------------------------------------
G-----------------------------------------------|-------------------------------------------------------
D-----------------------------------------------|--------------------------------------------------------
A-----------------------------------------------|-------------------------------------------------------
E-----------------------------------------------|--------------------------------------------------------


E-----------0---------0---------0----------0---|-----0h-2h-4p-2h-4p-2p-0-----------------------
B------------------------------------------------|-------------------------------------------------------
G---4h-6-----4h-6-----4h-6-----4h-6--------|-------------------------------------------------------
D------------------------------------------------|-------------------------------------------------------
A------------------------------------------------|-------------------------------------------------------
E------------------------------------------------|--------------------------------------------------------


E-------0--2--3b---3b---3b---3b-------------|--------4p--2--0--2--0------------------------------
B----0------------------------------------------|-------------------------------------------------------
G-----------------------------------------------|-------------------------------------------------------
D-----------------------------------------------|--------------------------------------------------------
A-----------------------------------------------|-------------------------------------------------------
E-----------------------------------------------|--------------------------------------------------------

        B                				     A
E----2-2-2-2-2-2-2-2-2-2-2-2-2-2-2-2------|------------------------------------------------------
B----4-4-4-4-4-4-4-4-4-4-4-4-4-4-4-4------|------2-2-2-2-2-2-2-2-2-2-2-2-2-2-2-2---------
G----4-4-4-4-4-4-4-4-4-4-4-4-4-4-4-4------|------2-2-2-2-2-2-2-2-2-2-2-2-2-2-2-2---------
D----4-4-4-4-4-4-4-4-4-4-4-4-4-4-4-4------|------2-2-2-2-2-2-2-2-2-2-2-2-2-2-2-2---------
A-------------------------------------------------|--------------------------------------------------------
E-------------------------------------------------|-------------------------------------------------------
      It does not move me, It’s not…….		    the kind of thing that I like.


         E						   E
E-------------------------------------------------|------------------------------------------------------
B-------------------------------------------------|------------------------------------------------------
G----1-1-1-1-1-1-1-1-1-1-1-1-1-1-1-1-----|-------1-1-1-1-1-1-1-1-1-1-1-1-1-1-1-1--------
D----2-2-2-2-2-2-2-2-2-2-2-2-2-2-2-2-----|-------2-2-2-2-2-2-2-2-2-2-2-2-2-2-2-2--------
A----2-2-2-2-2-2-2-2-2-2-2-2-2-2-2-2-----|-------2-2-2-2-2-2-2-2-2-2-2-2-2-2-2-2--------
E-------------------------------------------------|------------------------------------------------------
        Na na na na naa,                                    	    Na na na na naa


         E						   E
E-------------------------------------------------|------------------------------------------------------
B-------------------------------------------------|------------------------------------------------------
G----1-1-1-1-1-1-1-1-1-1-1-1-1-1-1-1-----|-------1-1-1-1-1-1-1-1-1-1-1-1-1-1-1-1--------
D----2-2-2-2-2-2-2-2-2-2-2-2-2-2-2-2-----|-------2-2-2-2-2-2-2-2-2-2-2-2-2-2-2-2--------
A----2-2-2-2-2-2-2-2-2-2-2-2-2-2-2-2-----|-------2-2-2-2-2-2-2-2-2-2-2-2-2-2-2-2--------
E-------------------------------------------------|------------------------------------------------------
        Na na na na naa,                                    	    Na na na na naa


         A						     A
E----------------------------------------------------|-------------------------------------------------------
B-----2---------------------------------------------|------2-------------------------------------------------
G-----2---------------------------------------------|------2-------------------------------------------------
D-----2---------------------------------------------|------2-------------------------------------------------
A---------------------------------------------------|--------------------------------------------------------
E---------------------------------------------------|-------------------------------------------------------
       It does not move me, It does….		     not get me going at……
		    (It doe not move me)


       E						   E
E-------------------------------------------------|------------------------------------------------------
B-------------------------------------------------|------------------------------------------------------
G----1-1-1-1-1-1-1-1-1-1-1-1-1-1-1-1-----|-------1-1-1-1-1-1-1-1-1-1-1-1-1-1-1-1--------
D----2-2-2-2-2-2-2-2-2-2-2-2-2-2-2-2-----|-------2-2-2-2-2-2-2-2-2-2-2-2-2-2-2-2--------
A----2-2-2-2-2-2-2-2-2-2-2-2-2-2-2-2-----|-------2-2-2-2-2-2-2-2-2-2-2-2-2-2-2-2--------
E-------------------------------------------------|------------------------------------------------------
    …all.


         A						     A
E----------------------------------------------------|-------------------------------------------------------
B-----2---------------------------------------------|------2-------------------------------------------------
G-----2---------------------------------------------|------2-------------------------------------------------
D-----2---------------------------------------------|------2-------------------------------------------------
A---------------------------------------------------|--------------------------------------------------------
E---------------------------------------------------|-------------------------------------------------------
       It does not shift me, It’s not….		     the kind of thing that I……
		    (It doe not shift me)


       E						   E
E-------------------------------------------------|------------------------------------------------------
B-------------------------------------------------|------------------------------------------------------
G----1-1-1-1-1-1-1-1-1-1-1-1-1-1-1-1-----|-------1-1-1-1-1-1-1-1-1-1-1-1-1-1-1-1--------
D----2-2-2-2-2-2-2-2-2-2-2-2-2-2-2-2-----|-------2-2-2-2-2-2-2-2-2-2-2-2-2-2-2-2--------
A----2-2-2-2-2-2-2-2-2-2-2-2-2-2-2-2-----|-------2-2-2-2-2-2-2-2-2-2-2-2-2-2-2-2--------
E-------------------------------------------------|------------------------------------------------------
    …like.  								……Oooooh


       B                				     A
E----2-2-2-2-2-2-2-2-2-2-2-2-2-2-2-2------|------------------------------------------------------
B----4-4-4-4-4-4-4-4-4-4-4-4-4-4-4-4------|------2-2-2-2-2-2-2-2-2-2-2-2-2-2-2-2---------
G----4-4-4-4-4-4-4-4-4-4-4-4-4-4-4-4------|------2-2-2-2-2-2-2-2-2-2-2-2-2-2-2-2---------
D----4-4-4-4-4-4-4-4-4-4-4-4-4-4-4-4------|------2-2-2-2-2-2-2-2-2-2-2-2-2-2-2-2---------
A-------------------------------------------------|--------------------------------------------------------
E-------------------------------------------------|-------------------------------------------------------
      It does not move me, It’s not…….		    the kind of thing that I like.


         E						   E
E-------------------------------------------------|------------------------------------------------------
B-------------------------------------------------|------------------------------------------------------
G----1-1-1-1-1-1-1-1-1-1-1-1-1-1-1-1-----|-------1-1-1-1-1-1-1-1-1-1-1-1-1-1-1-1--------
D----2-2-2-2-2-2-2-2-2-2-2-2-2-2-2-2-----|-------2-2-2-2-2-2-2-2-2-2-2-2-2-2-2-2--------
A----2-2-2-2-2-2-2-2-2-2-2-2-2-2-2-2-----|-------2-2-2-2-2-2-2-2-2-2-2-2-2-2-2-2--------
E-------------------------------------------------|------------------------------------------------------
        Na na na na naa,                                    	    Na na na na naa


         E						   E
E-------------------------------------------------|------------------------------------------------------
B-------------------------------------------------|------------------------------------------------------
G----1-1-1-1-1-1-1-1-1-1-1-1-1-1-1-1-----|-------1-1-1-1-1-1-1-1-1-1-1-1-1-1-1-1--------
D----2-2-2-2-2-2-2-2-2-2-2-2-2-2-2-2-----|-------2-2-2-2-2-2-2-2-2-2-2-2-2-2-2-2--------
A----2-2-2-2-2-2-2-2-2-2-2-2-2-2-2-2-----|-------2-2-2-2-2-2-2-2-2-2-2-2-2-2-2-2--------
E-------------------------------------------------|------------------------------------------------------
        Na na na na naa,                                    	    Na na na na naa	    …….Ooooh


         E						     
E----------------------------------------------------|-------------------------------------------------------
B---------------------------------------------------|--------------------------------------------------------
G-----1---------------------------------------------|--------------------------------------------------------
D-----2---------------------------------------------|--------------------------------------------------------
A-----2---------------------------------------------|--------------------------------------------------------
E---------------------------------------------------|-------------------------------------------------------
Comments