Kaiser Chiefs - I Predict A Riot Chords & Tabs

 

I Predict A Riot Chords & Tabs

Kaiser Chiefs Chords & Tabs

Version: 1 Type: Bass Tab 0 ratings
1 star 2 stars 3 stars 4 stars 5 stars
comments

I Predict A Riot Bass Tab

   
Tuning:- E,A,D,G.

Intro:-
G----------------------------------------------|
D---------------------------6--6-55-33-------|
A---3---6-53-----6-5----------------------6-5-|
E----------------------------------------------|
[ Tab from: http://www.guitartabs.cc/tabs/k/kaiser_chiefs/i_predict_a_riot_btab.html ]
Verse:-
G----------------------------------|
D----------------------------------|
A----3------1----------------------|
E---------------------1--------1---|

Chorus:-
G----------------------------|
D----------------------------|
A-----------------4----------|
E444----444-44------------|
Comments