Kaiser Chiefs - Everyday I Love You Less And Less Chords & Tabs

 

Everyday I Love You Less And Less Chords & Tabs

Kaiser Chiefs Chords & Tabs

Version: 1 Type: Tab 0 ratings
1 star 2 stars 3 stars 4 stars 5 stars
comments

Everyday I Love You Less And Less Tab

   
Artist : Kaiser Chiefs
Title:   Everyday I love you less and less
Album:   Employment (2005)

Transcripted by Tadeusz Pik      teddypeak@wp.pl

Intro:
   F#
E|------------------------------------------|
B|------------------------------------------|
G|-------------------11---------------------|
D|------------------------11---9---7--------|
A|-9-9-9-9-9-9-9-9-9----9----9---9---9...---|
E|------------------------------------------|

F#
Everyday I love you less and less
It's clear to see that you've become obsessed
I've got to get this message to the press
That everyday I love you less and less

F#
And everyday I love you less and less
I've got to get this feeling off my chest
The doctor says all I need's pills and rest
Since everyday I love you less and less and less and less

  G
  I know, I feel it in my bones
  I'm sick, I'm tired of staying in control
  F#
  Oh yes, I feel, my hands upon a wheel,
  I've got, to know that not too much is real
  G
  Oh yes, I'm stressed, I'm sorry I digressed
  Impressed, you dressed to SOS

         F#  E                 A        B
     And oooooh and my parents love me
     Oooooh and my girlfriend loves me
     Oooooh

Everyday I love you less and less
I can't believe once you and me did sex
It makes me sick to think of you undressed
Since everyday I love you less and less
[ Tab from: http://www.guitartabs.cc/tabs/k/kaiser_chiefs/everyday_i_love_you_less_and_less_tab.html ]
And everyday I love you less and less
You're turning into something I detest
And everybody says that you're a mess
Since everyday I love you less and less and less and less

  I know, I feel it in my bones
  I'm sick, I'm tired of staying in control
  Oh yes, I feel, direct upon a wheel
  I've got, to know that not too much is real
  Oh yes, I'm stressed, I'm sorry I digressed
  Impressed, you dressed to SOS

     And oooooh and my parents love me
     Oooooh and my girlfriend loves me
     Oooooh they keep photos of me
     Oooooh that's enough love for me
     Oooooh

E|----------------------------------------------------------|
B|--------9h10p9h10p9---------------------------------------|
G|-8-9h11-------------11-9-11--8h9p8h9p8--------------------|
D|---------------------------------------11-9-11--9-9\11-11-|
A|----------------------------------------------------------|
E|----------------------------------------------------------|

E|----------------------------------------------------------------|
B|--------9h10p9h10p9---------------------------------------------|
G|-8-9h11-------------11-9-11--8h9p8h9p8---------9h11p9-8---------|
D|---------------------------------------11-9-11----------11-9-11-|
A|----------------------------------------------------------------|
E|----------------------------------------------------------------|


     And oooooh and my parents love me
     Oooooh and my girlfriend loves me
     Oooooh they keep photos of me
     Oooooh that's enough love for me
     Oooooh
Comments