Kaiser Chiefs - Born To Be A Dancer Chords & Tabs

 

Born To Be A Dancer Chords & Tabs

Kaiser Chiefs Chords & Tabs

Version: 2 Type: Tab 0 ratings
1 star 2 stars 3 stars 4 stars 5 stars
comments

Born To Be A Dancer Tab

   
Kaiser Chiefs - Born To Be A Dancer
Tabbed by Kevin Ryan (barbarico@gmail.com)


Intro
-----

Piano arr. for guitar

E [-----5-------5-------5-------5-------6-------6-------6-------8---]
A [---6---6---6---6---6---6---6---6---6---6---6---7---6---6---6---6-]
D [-7-------7-------7-------7-------7-------7-------7-------7-------]
G [-----------------------------------------------------------------]
B [-----------------------------------------------------------------]
E [-----------------------------------------------------------------]


Guitar

E [------------------------------------------------------]
A [------------------------------------------------------]
D [------------------------------------------------------]
G [--------------------2-3-2-----------------------------]
B [-5---5-------5----5-------5-3-1---1-------1---1--0--0-]
E [-------5---5------------------------1---1-------------]



Verse - (same as intro)
-----

Guitar

E [------------------------------------------------------]
A [------------------------------------------------------]
D [------------------------------------------------------]
G [--------------------2-3-2-----------------------------]
B [-5---5-------5----5-------5-3-1---1-------1---1--0--0-]
E [-------5---5------------------------1---1-------------]



Chorus
------

G F Bb Ab
[ Tab from: http://www.guitartabs.cc/tabs/k/kaiser_chiefs/born_to_be_a_dancer_tab_ver_2.html ]
G  - 355433
F  - 133211
Bb - x13331
Ab - 466544


fill 1 - played after chorus

E [------------------------]
A [------------------------]
D [------------------------]
G [-5---5-5---5-5---5-3--6-]
B [-5---5-5---5-5---5-3--6-]
E [-3---3-3---3-3---3-1--4-]


fill 2 - played after fill 1 on second chorus

E [------------------------]
A [------------------------]
D [----------------------8-]
G [-8---8-8---8-8---8-6--8-]
B [-8---8-8---8-8---8-6--6-]
E [-6---6-6---6-6---6-4----]



Solo
----


E [----------------------------------------------------]
A [----------------------------------------------------]
D [----------------------------------------------------]
G [-7---7-5---5-7--7-8-7-5-----------------------------] x2
B [------------------------8-7-8---8-7---7-8---8--5--5-]
E [----------------------------------------------------]


E [--------------------------------------------------------]
A [--------------------------------------------------------]
D [----------------------5h7-------------------------------]
G [-0---0h2---2/3---3/5------7---7---7---7---7---7---7---7-] x4
B [----------------------------0-------0-------0-------0---]
E [--------------------------------------------------------]


Outro
-----

repeat chorus (x4)...followed by:

E [---------------]
A [---------------]
D [---------------]
G [-5---5-5---5-5-]
B [-5---5-5---5-5-]
E [-3---3-3---3-3-]
Comments