Kai - It Might Be U Chords & Tabs

 

It Might Be U Chords & Tabs

Kai Chords & Tabs

Version: 1 Type: Tab 0 ratings
1 star 2 stars 3 stars 4 stars 5 stars
comments

It Might Be U Tab

It Might Be you by Kai
Submitted by Ph0nG Tran(ph0ngtran@yahoo.com)

DiS be Da ReaL shiT!!!!!


Intro
D-3----3------------------------------------------------------------------
A-0--0--------------------------------------------------------------------
F-0------4-----------7----------------7---------------12h11---------------
C-0--------5-------9---9-----------10---10----------12--------------------
G-2--------------9-------9------10--------10------12----------------------
D-3-----------7------------7--8--------------8-10-------------------------


[ Tab from: http://www.guitartabs.cc/tabs/k/kai/it_might_be_u_tab.html ]
D-------------------------------------------------------------------------
A-------------------------------------------------------------------------
F-------------------------------------------------------------------------
C----------5------7-----9------10-----12----------------------------------
G-5----7------------------------------------------------------------------
D-------------------------------------------------------------------------



D-0---3---5----2----3--------3------7-----12---10---8---7---8--7---5--7--5--3--2
A-------------------------3------------------------------------------------------
F--------------------------------------------------------------------------------
C--------------------------------------------------------------------------------
G--------------------------------------------------------------------------------
D--------------------------------------------------------------------------------


D-3----------------------------------------------------------------------------------
A-0----------------------------------------------------------------------------------
F-0----------------------------------------------------------------------------------
C-0----------------------------------------------------------------------------------
G-2------2---5---5---------2----5---5------2----5----5-----7----3--2---0-------0-----
D-3---3---------------3----------------3-----------------------------------3------3--
Comments