Kadeho - El Callejon Chords & Tabs

 

Kadeho Chords & Tabs

Version: 1 Type: Bass Tab 0 ratings
1 star 2 stars 3 stars 4 stars 5 stars
comments

El Callejon Bass Tab

Artista: Kadeho
Canción: El Callejón
(Ver partitura de guitarra para ayudas)
(Es mi primer tab, nunca lo e probado, entonses puede que este un poco mal)

(+ = cambio rápido)

Verso - (x2)
G---------|------------|-------|------------|
D----5----|----5-----3+|--5----|----5-----3+|
A------5--|------5-----|----5--|------5-----|
E--5------|--5---------|5------|--5---------|

Coro - (x1)
G----------|-------|---------|--------------|
D----3-----|-------|---------|--------------|
A--5---3---|-------|---3-----|--------------|
E--------3-|-1-3-5-|-1---3-5-|-1-3-5--------|

Puente
G---------|------------|
D----5----|----5-----3+|
A------5--|------5-----|
E--5------|--5---------|
[ Tab from: http://www.guitartabs.cc/tabs/k/kadeho/el_callejon_btab.html ]
Verso 2 - (x1)
G---------|------------|-------|------------|
D----5----|----5-----3+|--5----|----5-----3+|
A------5--|------5-----|----5--|------5-----|
E--5------|--5---------|5------|--5---------|

Coro - (x1)
G----------|-------|---------|--------------|
D----3-----|-------|---------|--------------|
A--5---3---|-------|---3-----|--------------|
E--------3-|-1-3-5-|-1---3-5-|-1-3-5--------|

Solo - (x4)
G---------|
D---------|
A-------3-|
E-5-3-1---|


Coro - (x2)
G----------|-------|---------|--------------|
D----3-----|-------|---------|--------------|
A--5---3---|-------|---3-----|--------------|
E--------3-|-1-3-5-|-1---3-5-|-1-3-5--------|

Final
G-------------|
D-------------|
A-------------|
E-5--5--5--5--|
Comments