K, Relient - Sadie Hawkins Dance Chords & Tabs

 

Sadie Hawkins Dance Chords & Tabs

K, Relient Chords & Tabs

Version: 1 Type: Bass Tab 1 rating
1 star 2 stars 3 stars 4 stars 5 stars
comments

Sadie Hawkins Dance Bass Tab

Intro
1----------------------------------
2----------------------------------             x3
3---------------------5-----------
4-----5----0----2----------------


1---------------------------------------------------------------
2---------------------------------------------------------------   x6
3-------------------------------------------------55555555--
4---55555555---00000000---22222222------------------

1--------------------------------------------------------------
2--------------------------------------------------------------
3----------------------------------------------------------5--
4---5---5---5---5---0---0---0---0---2---2---2---2-------



1------------------------------------------------------------------------
2------------------------------------------------------------------------
3----------------------------------------------------------55555555--
4---5---5---5---5---0---0---0---0---2---2---2---2------------------


1---------------------------------------------------------------
2---------------------------------------------------------------   x2
3-------------------------------------------------55555555--
4---55555555---00000000---22222222------------------


1--------------------------------------------------------------
2--------------------------------------------------------------
3----------------------------------------------------------5--
4---5---5---5---5---0---0---0---0---2---2---2---2-------

[ Tab from: http://www.guitartabs.cc/tabs/k/k_relient/sadie_hawkins_dance_btab.html ]
1------------------------------------------------------------------------
2------------------------------------------------------------------------
3----------------------------------------------------------55555555--
4---5---5---5---5---0---0---0---0---2---2---2---2------------------


1---------------------------------------------------------------
2---------------------------------------------------------------   x1
3-------------------------------------------------55555555--
4---55555555---00000000---22222222------------------


1----------------------------------
2----------------------------------      x6
3---------------------5-----------
4-----5----0----2----------------


1--------------------------------------------------------------------------
2--------------------------------------------------------------------------
3-------------------------5-5-5-5-55555--------------------------------
4---0-0-0-0-22222--------------------------5-5-5-5-5555555555—


1--------------------------------------------------------------
2--------------------------------------------------------------
3----------------------------------------------------------5--
4---5---5---5---5---0---0---0---0---2---2---2---2-------
                                                                                                      x2

1------------------------------------------------------------------------
2------------------------------------------------------------------------
3----------------------------------------------------------55555555--
4---5---5---5---5---0---0---0---0---2---2---2---2------------------

Comments