K Otic - I Cant Explain Chords & Tabs

 

I Cant Explain Chords & Tabs

K Otic Chords & Tabs

Version: 1 Type: Tab 0 ratings
1 star 2 stars 3 stars 4 stars 5 stars
comments

I Cant Explain Tab

   
##################################################################################
# This file is the author's own work and represents their interpretation of the  #
# song. You may only use this file for private study, scholarship, or research.  #
##################################################################################

K Otic - I Can't Explain

E -----------------------------------------------------------
B -----------0-----1-------3---0-----------------------------
G -------2-----2-----2---2-----0--2-0-h-2-p-0----------------
D -----2---2-----2-----3-------0-----------------------------
A -----------------------------------------------------------
E -----------------------------------------------------------

[ Tab from: http://www.guitartabs.cc/tabs/k/k_otic/i_cant_explain_tab.html ]
E -----------------------------------------------------------
B -----------0-----1---------0-----1---0---1---3---0---------
G -------2-----2-----2---2-----2----2-0--0---0--0—-0---------
D -----2---2-----2-----3---3-----3-----------------3---------
A -----------------------------------------------------------
E -----------------------------------------------------------

Chorus C D F G+ Am Dm Dm+
=========================

Verse

Chords
     C    G    F     G*     Am     Dm      Dm*
E --------3----1-----3-------------1-------1----------------------
B ---1---------1-----3------1------3-------0----------------------
G -------------2------------2------2-------0----------------------
D ---2---------3------------2------0-------x----------------------
A ---3----2----3-----2-------------x-------x----------------------
E --------3----1-----3-------------x-------x----------------------


Comments