K-os - Emcee Murdah Chords & Tabs

 

Emcee Murdah Chords & Tabs

K-os Chords & Tabs

Version: 1 Type: Tab 0 ratings
1 star 2 stars 3 stars 4 stars 5 stars
comments

Emcee Murdah Tab

K-os - Emcee Murdah
Popular Canadian Hip-Hop artist. Just released new ablum last summer "Joyful Rebellion"
[ Tab from: http://www.guitartabs.cc/tabs/k/k_os/emcee_murdah_tab.html ]
e|-------------------------------------------|
b|-------------------------------------------|
g|--0--------------0--------------0----------|
d|-------1-0------------1-0------------1-0---|
a|-------------------------------------------|
e|3----3---------3----3---------3----3-------|

after that it goes like this...

e|------------------|
b|------------------|
g|--0---------------|
d|-------1-3-1-0----|
a|------------------|
e|3----3------------|

Plz someone help me finish the chorus
S.Salonga
Comments