K Nicolas Michel - Lamour Dans La Rue Chords & Tabs

 

K Nicolas Michel Chords & Tabs

Version: 1 Type: Tab 0 ratings
1 star 2 stars 3 stars 4 stars 5 stars
comments

Lamour Dans La Rue Tab

   
this is my first tab, so if you find somes mistakes, please, write me a mail
basile.brey@gmail.com

Intro:
      Em                     G                               D
E)--------------------------)----------------------------)-------------|
H)--------8---8-------8---8-)-----3---3------3---3-------)-------7---7-|
G)--------9---9-------9---9-)-----4---4------4---4-------)-------7---7-|
D)--------9---9-------9---9-)-----5---5------5---5-------)-------7---7-|
A)------7----------7--------)--5----------5--------------)----5--------|
E)--------------------------)----------------------------)-------------|

                    Am
E)-------------)---------------------------)
H)------7---7--)------5---5-------5---5----)
G)------7---7--)------5---5-------5---7----)  2times
D)------7---7--)------7---7-------7---7----)
A)---5---------)---7-----------7-----------)
E)-------------)---------------------------)


 Em
J’voudrais faire l’ amour avec toi
 G
J’voudrais m’emmêler dans tes bras
 D
J’voudrais me soûler à ta joie
 Am
J’voudrais faire la paix avec moi

J’voudrais faire l’amour avec toi
Seulement voila toi t’es pas la
Alors j’ me dis j’ vais faire comme sa
Moi j’ai qu’à faire l’amour sans toi
[ Tab from: http://www.guitartabs.cc/tabs/k/k_nicolas_michel/lamour_dans_la_rue_tab.html ]
Et j’essaie l’amour dans la rue
J’essais l’amour avec la vue
J’essais j’amour avec les mots
Pour le vieux Mr des journaux

On dirait qu’il ne me comprend pas
Il me rend ma monnaies comme sa
On dirait qu’on n’existe pas
"Hé, Monsieur, regardez c'est moi!"

J’voudrais faire l’amour avec toi
J’voudrais m’emmêler dans tes bras
J’voudrais me soûler à ta joie
J’voudrais faire la paix avec moi

J’voudrais faire l’amour avec toi
Seulement voila toi t’es pas la
Alors j’ me dis j’ vais faire comme sa
Moi j’ai qu’à faire l’amour sans toi


Et je fais l’amour dans la rue
Je fais l’amour avec la vue
Je fais l’amour avec les mots
Pour les arbres et pour les oiseaux

On dirait qu’ils me comprennent eux
On dirait qu’ils répondent un peu
On dirait qu’on va où on veut
hé ta vue comme le ciel et bleu, bleu, bleu, bleu,


Fm
Et je fais l’amour dans la rue
G#
Je fais l’amour avec la vue
Mb
Je fais l’amour avec les mots
Hbm
Pour les arbres et pour les oiseaux

Et puis même quand y a de l’orage
quand c’est tout gris
qu’on a la rage
Et même quand partout y pleut
Moi je crois qu’on est où on veut

Je fais l’amour avec toi
Je m’emmêle dans tes bras
Je me soûle avec ta joie
Et je fais la paix avec moi

Et on fait l’amour dans la rue
On fait l’amour avec la vue
On fait l’amour avec les mots
Pour les arbres et pour les oiseaux

Et voilà!
Comments