K Ci And Jojo - All My Life Chords & Tabs

 

All My Life Chords & Tabs

K Ci And Jojo Chords & Tabs

Version: 4 Type: Tab 0 ratings
1 star 2 stars 3 stars 4 stars 5 stars
comments

All My Life Tab

Im pretty sure this is 100% correct.  Enjoy

--------------------------------------------------------------------------
-------------------------------12-----------------------------------------
--14---11-14-13-------13-11--------------11-13-------13-11--------11------
-----11------------14-------14-----13/14----------14-----------13---14----
----------------14-----------------------------14-----------14------------
--------------------------------------------------------------------------



----------------------------------------------------------------------------
-------------------------------------12-------------------------------------
----11-13-14----11-14-13--------13-11---11-------11-13-------13-11-----11---
--14----------11-------------14---------------14----------14---------13--14-
--------------------------14---------------14----------14----------14-------
----------------------------------------------------------------------------

[ Tab from: http://www.guitartabs.cc/tabs/k/k_ci_and_jojo/all_my_life_tab_ver_4.html ]
-----------------------------------------------------------------------------
--------------------------------------12-------------------------------------
----11-13-14---11-14-13-------13-11--------------11-13-------13-11-----11----
--14---------11------------14-------14-----13/14----------14---------13--14--
------------------------14-----------------------------14----------14--------
-----------------------------------------------------------------------------


---------------------------------------------------------------------------
------------------------------------12-------------------------------------
----11-13-14---11-14-13-------13-11----11-------11-13-------13-11-----11---
--14---------11------------14----------------14----------14---------13--14-
------------------------14----------------14----------14----------14-------
---------------------------------------------------------------------------


--Tabbed By Paul Contreras   (My_DoGs)
Comments