K Ci And Jojo - All My Life Chords & Tabs

 

All My Life Chords & Tabs

K Ci And Jojo Chords & Tabs

Version: 3 Type: Tab 0 ratings
1 star 2 stars 3 stars 4 stars 5 stars
comments

All My Life Tab

   
intro chords:dm,c,g,c,g,am
e\-----1-------0-------3--3----0-------3-------0--0-----1-----0-----------------------|
b\-----3-------1-------0--0----1-------0-------1--1-----3-----1-----------------------|
-\---2---2---2---0---0------0----0---0---0---0------2----2--2---0---------------------|
-\-1-------1-------2---------0-----2-------0----------2---1-------2-------------------|
a\------------------------------------------------------------------------------------|
e\------------------------------------------------------------------------------------|

---3---3-----0-------3--------0-----------------------------------------------|
---0---0-----1-------0--------1-----------------------------------------------|
-0-------0-----0---0----0---0-------------------------------------------------|
----------0------2--------0---------------------------------------------------|
------------------------------------------------------------------------------|
------------------------------------------------------------------------------|
[ Tab from: http://www.guitartabs.cc/tabs/k/k_ci_and_jojo/all_my_life_tab_ver_3.html ]
verse...
c                         am
i will never find another lover,
              f                 g
sweeter than you,sweeter than you .
c                           am
i will never find another lover more precious
      f                        g
than you, more precious than you
c
girl you are

close to me,you're like my mother,
am
close to me your like my father,
f
close to me your like my sister
g
close to me you're like my brother,
am                dm        f                   g
you are the only one , my everything, and for you this song i sing


chorus:
dm   c   g       c                          am
all my life, i've  prayed for someone like you,
dm   c       g     c                  am
and i thank god, that i've finally found you
dm   c   g      em                         am
all my life , i've prayed for someone like you
        f            g                  c  am
and i hope that you feel the same way too
         f            g
yes, i pray that you do love me too
Comments