K Ci And Jojo - All My Life Chords & Tabs

 

All My Life Chords & Tabs

K Ci And Jojo Chords & Tabs

Version: 1 Type: Tab 0 ratings
1 star 2 stars 3 stars 4 stars 5 stars
comments

All My Life Tab

I've been looking for the tab for this and couldn't find it,
so I decided to try tab it myself. Its my first go so yeah, it soundz
alrite though.

Intro starts 40sec into the song
[ Tab from: http://www.guitartabs.cc/tabs/k/k_ci_and_jojo/all_my_life_tab.html ]
-1-----1--0-----0------3-------0-----0-----------------0--------------------
-----3--------1----3------1-3------1---3-----3-1---1-3----------------------
---2--------0--------0-----------0---------0--------------------------------
-0---------------------------------------0----------------------------------
----------3--------2-----------3-------2-------0----------------------------
----------------------------------------------------------------------------

-1-----1--0-----0----3------0-----0------------------0----------------------
-----3--------1----3---3--------1----3-----3-1--*1-3------------------------
---2--------0------------0----0----------0----------------------------------
-0------------------------------------0-------------------------------------
----------3--------2--------3-------2--------0------------------------------
Play these lines twice but after the * only play once
Comments