Juvenile - Slow Motion Chords & Tabs

 

Slow Motion Chords & Tabs

Juvenile Chords & Tabs

Version: 1 Type: Tab 0 ratings
1 star 2 stars 3 stars 4 stars 5 stars
comments

Slow Motion Tab

E------0---2----------------|
B--0----------3-----2-------|
G---------------------------|
D---------------------------|
A---------------------------|
E---------------------------|
[ Tab from: http://www.guitartabs.cc/tabs/j/juvenile/slow_motion_tab.html ]
E------0---2----------------|
B--0----------3-----2-------|
G---------------------------|
D---------------------------|
A---------------------------|
E---------------------------|
[ Tab from: http://www.guitartabs.cc/tabs/j/juvenile/slow_motion_tab.html ]
E------0---2----------------|
B--0----------3-----2-------|
G---------------------------|
D---------------------------|
A---------------------------|
E---------------------------|
Comments