Justincase - Without You Chords & Tabs

 

Without You Chords & Tabs

Justincase Chords & Tabs

Version: 1 Type: Tab 0 ratings
1 star 2 stars 3 stars 4 stars 5 stars
comments

Without You Tab

   
Artist: Justincase feat. Michelle Branch
Song: Without You
Album: Justincase
Transcribed by: thm_05

I don't know if the chord names are right, but if anybody knows please tell me.
Besides that though, the song should sound pretty good if you figure out the right 
strumming and if you can play the lead parts good. It also helps to have the right
type of guitar for the song too, its a soothing song makes a good movie love theme.

Chords used:
E         : 0 2 2 1 0 0 | F#/A(add?)  : 2 x 2 4 0 0
Bsus2     : x 2 4 4 0 0 | B(add E)sus2: 0 2 2 4 0 0
C#(sus2)  : x 4 6 6 0 0 | A/E5        : x 0 2 4 5 0
G#/A(add?): 4 x 2 4 0 0 | C#m7        : x 4 2 4 0 0
A(add?)   : x 0 2 4 0 0 |

Leads:
Verse:
e-----------------------------------------|
B-----------------------------------------|
G-----------------4----------6-------4----|
D------4-------4----4-----6----6---2---2--|
A----2------2----------4---------0--------|
E--0-----0--------------------------------|

Pre-Chorus:
                               x2
e---------0---------------0------|--------0------------0----|
B-----------0----------------0---|----------0------------0--|
G------4---------------4---------|------4------------4------|
D----2--------------2------------|----2------------2--------|
A----------------0-------------0-|---------------2----------|
E--4-----------4-----------------|-2----------2-------------|

Chorus:
e------0----------0---------0--------0--------0--------0------------5-4----|
B--------0----------0---------0--------0--------0--------0--------5-----5--|
G----4---------4----------4--------4--------4--------4----------4----------|
D-------------------------------------------------------------2------------|
A-----------------------------------------------------------0--------------|
E--0--------0----------2---------2--------4--------4-----------------------|

Bridge:
e------0--------0--------0--------0-------0--------0--------0--------0----|
B--------0--------0--------0--------0-------0--------0--------0--------0--|
G----4--------4--------4--------4-------4--------4--------4--------4------|
D-------------------------------------------------------------------------|
A--4--------4--------2--------2-------------------------0--------0--------|
E-------------------------------------2--------2--------------------------|

Solo 1:
e--------------------------|
B--9-7~---10--10--9-7-0-5--|
G--------------------------|
D--------------------------|
A--------------------------|
E--------------------------|
[ Tab from: http://www.guitartabs.cc/tabs/j/justincase/without_you_tab.html ]
Solo2:
e----------------------------------------------------|
B-------------------------------------------4b-2p0~--|
G--9/11-11/13-13/16/13--11/13--6~--6/9--4~-----------|
D--x----x---x--x--x--x---x--x--x---x-x--x------------|
A--7/9--9-/11-11/14/11---9/11--4~--4/7--2~-----------|
E----------------------------------------------------|

Verse 1: [Only the lead part]
It's been two weeks, three days long
I'm all alone since you've been gone 
I can't keep myself from asking why
Just wanna see my reflection in your eyes

Pre-Chorus: [G#/A(add?)- A(add?)x2]
Just know that I'm with you
And what you feel I feel it too
[F#/A(add?) - B(add E)sus2]
Yeah

Chorus: [B(add E)sus2 - F#/A(add? - G#/A(add?) - A/E5]
I'm feeling, lately
I'm going, crazy
Wondering how I'll go on without you
I keep on, trying
Slowly, I'm dying
Thinking of how I need you here with me

Solo 1

Verse 2: [E- Bsus2 - C#sus2 - A(add?)]
I wear your shirt, the scent of you
Reminds me of the night when we became two
There's nothing else that feels the same
Every day there's sun that feels just like rain

Pre-Chorus: [G#/A(add?)- A(add?)x2]
Just know that I'm with you
And what you feel I feel it too
[F#/A(add?) - B(add E)sus2]
Yeah

Chorus: [B(add E)sus2 - F#/A(add? - G#/A(add?) - A/E5]
I'm feeling, lately
I'm going, crazy
Wondering how I'll go on without you
I keep on, trying
Slowly, I'm dying
Thinking of how I need you here with me

Bridge: [C#m7 - B(add E)sus2 - F#/A(add? - A(add?)]
If you think it's easy for me
Well you're wrong
Sometimes I'm waiting
But baby you know
I'm not the strong
Whoa yeah

Solo 2

Verse 3: [E- Bsus2 - C#sus2 - A(add?)]
You're in New York and I'm in LA
There's so much to tell you
Words I need to say
But your phone keeps ringing, ringing, ringing

Chorus: [B(add E)sus2 - F#/A(add? - G#/A(add?) - A/E5]
I'm feeling, lately
I'm going, crazy
Wondering how I'll go on without you
I keep on, trying
Slowly, I'm dying
Thinking of how I need you here with me

Chorus: [B(add E)sus2 - F#/A(add? - G#/A(add?) - A/E5]
I'm feeling, lately
I'm going, crazy
Wondering how I'll go on with out you
How will I go on without you
How will I go on without you

Last Verse: [Only the lead part]
Its been two weeks, three days long 
I'm all alone since you've been gone

Finish on an E chord and that's it.
Comments