Justin Ward - Im Stuck Chords & Tabs

 

Im Stuck Chords & Tabs

Justin Ward Chords & Tabs

Version: 1 Type: Tab 0 ratings
1 star 2 stars 3 stars 4 stars 5 stars
comments

Im Stuck Tab

   
                            I'm Stuck
                          by Justin Ward

        if any questions please e-mail me at Wanna_b_page@yahoo.com

The tempo is mediuem


//=slide down the neck
\\=slide up the neck
h=hammer on
p=pull off



Into:
 Em    C    D     D
E----------------------------------------------------------------  
A-2----3--------------------------------------------------------- 
D-----------0--0--0--0------------------------------------------- X2
G----------------------------------------------------------------
B----------------------------------------------------------------
e-0----0----2--3--2--0-------------------------------------------
[ Tab from: http://www.guitartabs.cc/tabs/j/justin_ward/im_stuck_tab.html ]
Verse:
 Em              Em                    C                C
E--------------------------------------------------------------------
A-2---------------2--------------------3----------------3------------
D---2---------0-----2-----------0--------2-----------0----2----------
G-----0---0-----------0----0---------------0----0-----------0----0---
B--------------------------------------------------------------------
e-0-----3---0-----0------3----0----0---0------3----0-----------3---0-
     D                      D                        Em 
E-----------------------------------------------------------------
A-------------------------------------------------4/-2------------
D-0--0----------------------0------------------------------------- X4
G------2----------------------2-----------------------------------
B--------3---3---3---3---3------3---3---3---3---------------------
e----2-----3---2---0---2----2-----3---2---0---2---0--0------------

Pre-Courus:
  Em     Em      Em      Em      C      C     C       C        
E-----------------------------------------------------------------
A--2------2-------2-------2------3------3------3------3----------- 
D----2------2-------2-------2------2------2------2------2--------- X2
G-----------------------------------------------------------------
B-----------------------------------------------------------------
e--0----0-0----0--0-----0-0----0-0----0-0----0-0----0-0----0------

Courus:

E-----------------------------------------------------------------
A-2\\-7--------------5--------5-----------5\\7--------------------
D-------9--------------7-----------4h5p4-------------------------- X4
G---------9------9------------------------------------------------
B--------------8-----7--------7-----------------------------------
e-----7------7-----------5----------------------------------------
 
Play this as a transishing lick to the verse:

E-----------------------------------------------------------------
A------------5//2-------------------------------------------------
D-----4h5p4------------------------------------------------------- X1
G----------------------------------------------------------------- 
B-----------------------------------------------------------------
e-----------------------------------------------------------------
         if any questions please e-mail me at Wanna_b_page@yahoo.com

still working on the 
solo, have fun,
               Justin
Comments