Justin Timberlake - Senorita Chords & Tabs

 

Senorita Chords & Tabs

Justin Timberlake Chords & Tabs

Version: 6 Type: Tab 0 ratings
1 star 2 stars 3 stars 4 stars 5 stars
comments

Senorita Tab

   
                --------------------------------------
                             Justin Timberlake - Senorita
               ----------------------------------------


Tabbed by: ibanez_uchiha

Figured this out and thought i'd tab it, not sure of all the names but amazing chords 
for a brilliant song.
Any changes/corrections comment below!



 E 7add4       Bb Maj7
[ Tab from: http://www.guitartabs.cc/tabs/j/justin_timberlake/senorita_tab_ver_6.html ]
e|--7----------6---------4---------------------------------------|
B|--9----------7---------6--------6---------6----6-----4---------|
G|--7----------7---------7--------7---------6----6-----4---------|
D|--------------------------------6---------4----4-----2---------|
A|------------------------------------------6----6-----4---------|
E|---------------------------------------------------------------|


2:16 Break

e|--5-7--9--9--7-------------7---9--9--7----------------|
B|-------7--------10--9--10------7--------10---9--------|
G|-------7------------9----------7-------------9--------|
D|-------9------------7----------9-------------7--------|
A|--------------------9------------------------9--------|
E|------------------------------------------------------|

e|--3-5--7--7--5-----------5--7--7--5----------------|
B|-------5--------8--7--8-----5--------8--7----------|
G|-------5-----------7--------5-----------7----------|
D|-------7-----------5--------7-----------5----------|
A|-------------------7--------------------7----------|
E|---------------------------------------------------|
Comments