Justin Sane - Thanks For The Letters Chords & Tabs

 

Thanks For The Letters Chords & Tabs

Justin Sane Chords & Tabs

Version: 1 Type: Tab 0 ratings
1 star 2 stars 3 stars 4 stars 5 stars
comments

Thanks For The Letters Tab

   
Justin Sane - Thanks For The Letters
Tabbed By: Mr.J
Email: little_pool_hustler@hotmail.com

Tuning: Standard (E A D G B E)



intro/verses
E|---------------------------------------------------------------------------||
B|---------------------------------------------------------------------------||
G|--7777-77--7777-77------10101010-1010----151515--141414--------------------||
D|--7777-77--5555-55------10101010-1010----151515--141414--------------------||
A|--5555-55--7777-77------8-8-8-8--8-8-----131313--121212--------------------||
E|---------------------------------------------------------------------------||

[ Tab from: http://www.guitartabs.cc/tabs/j/justin_sane/thanks_for_the_letters_tab.html ]
E|---------------------------------------------------------------------------||
B|---------------------------------------------------------------------------||
G|--7777-77--7777-77-----1010xx1010xx1010xx1010------------------------------||
D|--7777-77--5555-55-----1010xx1010xx1010xx1010------------------------------||
A|--5555-55--7777-77-----8-8-xx8-8-xx8-8-xx8-8-------------------------------||
E|---------------------------------------------------------------------------||
repeat that 3 times until the pre-chorus

pre-chorus                     
E|---------------------------------------------------------------------------||
B|---------------------------------------------------------------------------||
G|--7xxxx7xxxx10xxxx1515-1414------------------------------------------------||
D|--7xxxx5xxxx10xxxx1515-1414------------------------------------------------||
A|--5xxxx7xxxx8-xxxx1313-1212------------------------------------------------||
E|---------------------------------------------------------------------------||


E|---------------------------------------------------------------------------||
B|---------------------------------------------------------------------------||
G|--7---7--10--------------------7---7---10----------10----------------------||
D|--7---5--10------10-10-10-8-7--7---5---10---10--8--------------------------||
A|--5---7--8---------------------5---7---8-----------------------------------||
E|---------------------------------------------------------------------------||

repeat that through the rest of the song.

sick song by a sick artist.
Comments