Justin Sane - For Pat Chords & Tabs

 

For Pat Chords & Tabs

Justin Sane Chords & Tabs

Version: 1 Type: Tab 0 ratings
1 star 2 stars 3 stars 4 stars 5 stars
comments

For Pat Tab

Justin Sane - For Pat
Tab By Mcrago Inc.(edgar mcrae)

This tab is about 100% right. All the chords are all right, but i was to lazy to type 
plam mutes so
you're going to have to find them your self, just listen to the song...


  This is the Verse, after the 1st brige in the song play this again
e|-----------------------------------------------------------------|
B|-----------------------------------------------------------------|
G|---77---8--7--8--7---22------------------------------------------|
D|---88---8--8--8--8---33------------------------------------------|
A|---88---6--8--6--8---33------------------------------------------|
E|---66---6--6--6--6---11------------------------------------------|
  walking these streets all by me self...


e|-----------------------------------------------------------------|
B|-----------------------------------------------------------------|
G|---77---8--7--8--2--7--------------------------------------------|
D|---88---8--8--8--3--8--------------------------------------------|
A|---88---6--8--6--3--8--------------------------------------------|
E|---66---6--6--6--1--6--------------------------------------------|
  cause sometimes don't you know that I just feel that way...


e|-----------------------------------------------------------------|
B|-----------------------------------------------------------------|
G|---22---8--7--8--7--1--------------------------------------------|
D|---33---8--8--8--8--3--------------------------------------------|
A|---33---6--8--6--8--3--------------------------------------------|
E|---11---6--6--6--6--1--------------------------------------------|
  and the people sit and stare from their main street terraces...
[ Tab from: http://www.guitartabs.cc/tabs/j/justin_sane/for_pat_tab.html ]
e|-----------------------------------------------------------------|
B|-----------------------------------------------------------------|
G|---77---8--7--8--2--7--------------------------------------------|
D|---88---8--8--8--3--8--------------------------------------------|
A|---88---6--8--6--3--8--------------------------------------------|
E|---66---6--6--6--1--6--------------------------------------------|
  but they never say "Hello" 'cause they could never understand...


Chorus, 2X
e|-----------------------------------------------------------------|
B|-----------------------------------------------------------------|
G|---77--88--777---888--222----------------------------------------|
D|---88--88--888---888--333----------------------------------------|
A|---88--66--888---666--333----------------------------------------|
E|---66--66--666---666--111----------------------------------------|
  you see I'm thinking of a world...


Bridge after the Chorus
e|-----------------------------------------------------------------|
B|-----------------------------------------------------------------|
G|-----------------------Palm mute--77--88--222---77--8>10--XXX-10-|
D|------------------------888--333--88--88--333---88--8>10--XXX-10-|
A|---8----------5---------666--111--88--66--333---88--6>8---XXX-8--|
E|---6666--555--3333--111-----------66--66--111---66--6>8---XXX-8--|
  and I know, its just a dream...


After the 2nd Bridge, play 4X  | The last part of the song
e|-----------------------------|------------------------------------|
B|-----------------------------|------------------------------------|
G|---777--888--222-------------|--8-77-55-66-77----7----------------|
D|---888--888--333-------------|--8-77-55-77-88----8----------------|
A|---888--666--333-------------|--6-55-33-77-88----8----------------|
E|---666--666--111-------------|----------55-66----6----------------|
  Protect their conscience...  | Because its not the way it has to ***in be.
Comments