Justin King - Knock On Wood Chords & Tabs

 

Knock On Wood Chords & Tabs

Justin King Chords & Tabs

Version: 2 Type: Tab 0 ratings
1 star 2 stars 3 stars 4 stars 5 stars
comments

Knock On Wood Tab

This is the into and some of the other bits. Email me at RobertJ717@hotmail.com

Part1
e ----------------------------------------------------|
B ----------------------------------------------------|
G ----------------------------------------------------|
D ------h4p0---------------------------h4p0-----------|
A -----------h4h5p0-h4h5p0-h4h5p0-----------h4h5~-----|
E -h3h4---------------------------h3h4----------------|

e ----------------------------------------------------|
B ----------------------------------------------------|
G ----------------------------------------------------|
D ------h4p0---------------------------h4p0-----------|
A -----------h4h5p0-h4h5p0-h4h5p0-----------h4h5\1----|
E -h2h3---------------------------h2h3----------------|

2nd guitar-drop d

D ------<12>------|
A ------<12>------|
G ------<12>------|
D ------<12>------|
A ----------------|
D -0--------------|
   s     t


PART 2
[ Tab from: http://www.guitartabs.cc/tabs/j/justin_king/knock_on_wood_tab_ver_2.html ]
guitar 1
e||-----------------------------------------------------------------|
B||-----------------------------------------------------------------|
G||-------4h7p4-----------2h5p0-------------5p0-------------7p0-----|
D||-----------------------------------------------------------------|
A||---------------------------------3---------------5-----5---------|
E||-5---------------3-----------------------------------------------|


guitar 2
D||---9p0-------7p0---7p0-------5p0---5p0-2-----5p0---7p0-------7p0-|
A||-----------------------------------------------------------------|
G||-----------------------------------------------------------------|
D||-----------------------------------------------------------------|
A||----------------------------------1---------------5-----5--------|
D||-2----------------1----------------------------------------------|

^^all are right hand taps for the high D and thumb taps for the low D and A


e ----------------------------|
B ----------------------------|
G ----------------------------|
D -------h4p0-----------------|
A ------------h4h5-h4h5~~p0---|
E -h2h3-----------------------|

should be close, or at least closer to you being able to figure all of it out, its 
to watch. Video can be found on his website, Justinking.com
Comments