Justifide - The Way Chords & Tabs

 

The Way Chords & Tabs

Justifide Chords & Tabs

Version: 2 Type: Tab 0 ratings
1 star 2 stars 3 stars 4 stars 5 stars
comments

The Way Tab

   
Song: The Way
Band: Justifide
Album: Life Outside the Toybox

Forward by Hallam D

I'm trying to put heaps of Christian tabs on here from some of my favorite
songs, so I've got this off another site to put it here for you.
If you'd like me to tab or find a song for you email me at
                      r_e_n_e_g_a_d_e@hotmail.com

                          Hallam:)

I play this song in drop D tuning
This is my first tab so I?m sorry if it?s a bit shocking
but these things can?t be helped as I only worked this
out today.  Please email with any corrections.  Anyway
on with the show!

Palm Muted notes are marked with a *.
The whole song is played with distortion

Riff 1
Eb---------------------------------------------|
Bb---------------------------------------------|
Gb---------------------------------------------|
Db---0--2--3--0--5--4--0--2--3--0--5--4--0--8--|
Ab---0--2--3--0--5--4--0--2--3--0--5--4--0--8--|
Db---0--2--3--0--5--4--0--2--3--0--5--4--0--8--|

Riff 2
Eb---------------------------------------------|
Bb---------------------------------------------|
Gb---------------------------------------------|
Db---0--2--3--0--5--4--0--2--3--0--5--4--0--x--|
Ab---0--2--3--0--5--4--0--2--3--0--5--4--0--x--|
Db---0--2--3--0--5--4--0--2--3--0--5--4--0--x--|
This is a slightly different version of Riff 1.
[ Tab from: http://www.guitartabs.cc/tabs/j/justifide/the_way_tab_ver_2.html ]
Riff 3 - Verse
Eb--------------------------------------------|
Bb--------------------------------------------|
Gb--------------------------------------------|
Db------8-7-----------8-7--10-----------8--7--|
Ab--------------------------------------------|
Db--0-0---------------------------------------|
    * *
Eb--------------------------------------------|
Bb--------------------------------------------|
Gb--------------------------------------8-----|
Db------8-7-----------8-7--10--------------7--|
Ab--------------------------------------------|
Db--0-0---------------------------------------|
    * *

Eb-----------------------------------------|
Bb-----------------------------------------|
Gb-----------------------------------------|
Db------8-7-----------8-7--10-----------8--|
Ab-----------------------------------------|
Db--0-0------------------------------------|
    * *

Riff 4
Eb----------------------------------------------|
Bb----------------------------------------------|
Gb----------------------------------------------|
Db--7--7--7--7--7---7--7--7--7--7---10--10--10--|
Ab--7--7--7--7--7---7--7--7--7--7---10--10--10--|
Db--7--7--7--7--7---7--7--7--7--7---10--10--10--|

Eb-------------------------------------------|
Bb-------------------------------------------|
Gb-------------------------------------------|
Db--5--5--5--5--5---5--5--5--5--5---8--8--8--|
Ab--5--5--5--5--5---5--5--5--5--5---8--8--8--|
Db--5--5--5--5--5---5--5--5--5--5---8--8--8--|

Riff 5
Eb--------------------------------------|
Bb--------------------------------------|
Gb--------------------------------------|
Db--7----7----7--7--10--10---5---7---8--|
Ab--7----7----7--7--10--10---5---7---8--|
Db--7----7----7--7--10--10---5---7---8--|

Riff 6
Eb--------------------------------------------------|
Bb--------------------------------------------------|
Gb--------------------------------------------------|
Db---0--2--3--0--5--4--0--2--3--0--5--4--0--8---8---|
Ab---0--2--3--0--5--4--0--2--3--0--5--4--0--8---8---|
Db---0--2--3--0--5--4--0--2--3--0--5--4--0--8---8---|

Chorus goes like this: Riff 2, Riff 1, Riff 2, Riff 1

This is how it goes:
Riff 1 x4
Riff 3 - Verse
Chorus
Verse - Use tremelo picking.  Listen to the song to get the right speed.
Chorus x2
Riff 4 x4
Riff 5 x4
Pause
Riff 5 x4
Chorus
Riff 1 x3
Riff 6

Tabbed by Luke
Email: luke_bourne84@hotmail.com

Return to www.christianguitar
Comments