Justifide - Still Cries Chords & Tabs

 

Still Cries Chords & Tabs

Justifide Chords & Tabs

Version: 1 Type: Tab 0 ratings
1 star 2 stars 3 stars 4 stars 5 stars
comments

Still Cries Tab

Song: Still Cries
Band: Justifide
Album: Life Outside of the Toybox


Verse: (Clean)                      “0:00-1:19”
e:-------------------------------------------
B:-------------------------------------------
G:---------------------7-------------------
D:-----4-------7-------7--------------------	
A:-----4-------7-------5--------------------
E:-----2-------5-----------------------------


Chorus: (w/ heavy distortion)  “1:19-1:38”
e:--------------------------------------------
B:-------------------------------------------
G:-----------7----------------9----------
D:----4------7--------7-------9------------
A:----4------5------- 7-------7----------------
E:----2---------------5------------------------
[ Tab from: http://www.guitartabs.cc/tabs/j/justifide/still_cries_tab.html ]
Verse 2 : (Clean)                      “1:38-2:16”
e:-------------------------------------------
B:-------------------------------------------
G:---------------------7-------------------
D:-----4-------7-------7--------------------	
A:-----4-------7-------5--------------------
E:-----2-------5-----------------------------

Chorus: (w/ heavy distortion)  “2:16-2:55”
e:--------------------------------------------
B:-------------------------------------------
G:-----------7----------------9----------
D:----4------7--------7-------9------------
A:----4------5------- 7-------7----------------
E:----2---------------5------------------------

Outro: (Clean)                      “2:55-end”
e:-------------------------------------------
B:-------------------------------------------
G:---------------------7-------------------
D:-----4-------7-------7--------------------	
A:-----4-------7-------5--------------------
E:-----2-------5-----------------------------

 Well thats it. I’m 14 years old, so if there’s any mistakes please e-mail me so I can watch
for them next time. I’ve seen Justifide in concert twice and these dudes ~ROCK~! Well if
 theres any questions or comments, e-mail me! 
                                             < Aaron Smith  Lobosrck182@aol.com
Comments