Justifide - Change Chords & Tabs

 

Change Chords & Tabs

Justifide Chords & Tabs

Version: 3 Type: Tab 0 ratings
1 star 2 stars 3 stars 4 stars 5 stars
comments

Change Tab

                       
           x2            
E|---------------------------------------------
B|---------------------------------------------
G|---------------------------------------------
D|0-0-16/17\16-14-12--8------7------3p0--------
A|0-0-16/17\16-14-12--8-(x9)-7-(x4)-3p0-(x3)---
D|0-0-16/17\16-14-12--8------7------3p0--------

           x2            
E|---------------------------------------------
B|---------------------------------------------
G|---------------------------------------------
D|0-0-16/17\16-14-12--8------7------3p0--------
A|0-0-16/17\16-14-12--8-(x9)-7-(x4)-3p0-(x3)---
D|0-0-16/17\16-14-12--8------7------3p0--------
                  
E|------------------------------------
B|------------------------------------
G|------------------------------------
D|-0--12--7------5------5-5-9-9-7-7---
A|-0--12--7-(x8)-5-(x8)-5-5-9-9-7-7---
D|-0--12--7------5------5-5-9-9-7-7---


E|-----------------------------------------------------------
B|-----------------------------------------------------------
G|-----------------------------------------------------------
D|-0--12--7------5------5-5-9-9-7-7---4--5-2-2------0--8-7-3-
A|-0--12--7-(x8)-5-(x8)-5-5-9-9-7-7---4--5-2-2-(x3)-0--8-7-3-
D|-0--12--7------5------5-5-9-9-7-7---4--5-2-2------0--8-7-3-

           x2            
E|---------------------------------------------
B|---------------------------------------------
G|---------------------------------------------
D|0-0-16/17\16-14-12--8------7------3p0--------
A|0-0-16/17\16-14-12--8-(x9)-7-(x4)-3p0-(x3)---
D|0-0-16/17\16-14-12--8------7------3p0--------
[ Tab from: http://www.guitartabs.cc/tabs/j/justifide/change_tab_ver_3.html ]
           x2            
E|---------------------------------------------
B|---------------------------------------------
G|---------------------------------------------
D|0-0-16/17\16-14-12--8------7------3p0--------
A|0-0-16/17\16-14-12--8-(x9)-7-(x4)-3p0-(x3)---
D|0-0-16/17\16-14-12--8------7------3p0--------

E|------------------------------------
B|------------------------------------
G|------------------------------------
D|-0--12--7------5------5-5-9-9-7-7---
A|-0--12--7-(x8)-5-(x8)-5-5-9-9-7-7---
D|-0--12--7------5------5-5-9-9-7-7---

E|-----------------------------------------------------
B|-----------------------------------------------------
G|-----------------------------------------------------
D|-0--12--7------5------5-5-9-9-7-7---4--5-2-2------0--
A|-0--12--7-(x8)-5-(x8)-5-5-9-9-7-7---4--5-2-2-(x3)-0--
D|-0--12--7------5------5-5-9-9-7-7---4--5-2-2------0--


OTHER VERSE


LAST TIME WITH SOLO 

           x2            
E|---------------------------------------------
B|---------------------------------------------
G|---------------------------------------------
D|0-0-16/17\16-14-12--8------7------3p0--------
A|0-0-16/17\16-14-12--8-(x9)-7-(x4)-3p0-(x3)---
D|0-0-16/17\16-14-12--8------7------3p0--------

           x2            
E|---------------------------------------------
B|---------------------------------------------
G|---------------------------------------------
D|0-0-16/17\16-14-12--8------7------3p0--------
A|0-0-16/17\16-14-12--8-(x9)-7-(x4)-3p0-(x3)---
D|0-0-16/17\16-14-12--8------7------3p0--------


E|------------------------------------
B|------------------------------------
G|------------------------------------
D|-0--12--7------5------5-5-9-9-7-7---
A|-0--12--7-(x8)-5-(x8)-5-5-9-9-7-7---
D|-0--12--7------5------5-5-9-9-7-7---

E|------------------------------------------
B|------------------------------------------
G|------------------------------------------
D|-0--12--7------5------5-5-9-9-7-7---4--0--
A|-0--12--7-(x8)-5-(x8)-5-5-9-9-7-7---4--0--
D|-0--12--7------5------5-5-9-9-7-7---4--0--


This is my first tab. I don't have the interlude and the solo
but I'm workint it to add it.
Listen to the song to get the right speed.
Comments