Jupiter Sunrise - Arthur Nix Chords & Tabs

 

Arthur Nix Chords & Tabs

Jupiter Sunrise Chords & Tabs

Version: 2 Type: Tab 0 ratings
1 star 2 stars 3 stars 4 stars 5 stars
comments

Arthur Nix Tab

Band: Jupiter Sunrise
Song: Arthur Nix
Tabbed By: Jana
[ Tab from: http://www.guitartabs.cc/tabs/j/jupiter_sunrise/arthur_nix_tab_ver_2.html ]
e|--------------------------------
B|---9----------------------------
G|--9-9-11-9-11\9-8-9-6-4-4-------
D|-9---------11\9------7-6-52-----
A|--------------------------2-----
E|--------------------------0-----

e|-----------------------------------
B|-----------------------------------
G|-----------------------------------
D|-2222-66-77-44-2222-66-77-99-------
A|-2222-66-77-44-2222-66-77-99-------
E|-0000-44-55-22-0000-44-55-77-------
Comments