Jupiter Day - Morning After Chords & Tabs

 

Morning After Chords & Tabs

Jupiter Day Chords & Tabs

Version: 1 Type: Tab 0 ratings
1 star 2 stars 3 stars 4 stars 5 stars
comments

Morning After Tab

   
Jupiter Day - The morning after

A really beautiful and easy song to play... fun to sing (scream/yell)!

I'll just write everything down so everyone gets it.

_____________________________________________________________________________________________________


Chords:
	Dm	Dm	Am	 Am/F	  G	G	F	C
e -------5-------1-------5---------5------3-----3-------1-------0-------|
B -------6-------3-------5---------6------3-----3-------1-------1-------|
G -------7-------2-------5---------5------4-----0-------2-------0-------|
D -------7-------0-------7---------7------5-----0-------3-------2-------|
A -------5---------------7---------7------5-----2-------3-------3-------|
E -------5---------------5---------5------3-----3-------1-------0-------|


_____________________________________________________________________________________________________

Chords:

NB: Play only the Am/F if you think it sounds better - you'll get the idea if you play and/or listen to 
song...

Intro and vers:
| Dm | Am | Am(/F) | G | G |


Bridge:
| F | G | F | G |


Chorus and outro/fade:
| Dm | C | G | F |


______________________________________________________________________________________________________


Intro:

Played twice

	Dm		Am   Am(/F)  Am		     G
e ----------5-----------(5)---(5)----(5)-------------3--3--5------------|
B ----------------6------5-----6------5---(5)-(5)----3--------3---------|
G -------7-----7---------------------------5---5-----4------------------|
D ---------------------------------------------------5------------------|
A ----------------------------------------------------------------------|
E ----------------------------------------------------------------------|
[ Tab from: http://www.guitartabs.cc/tabs/j/jupiter_day/morning_after_tab.html ]
_______________________________________________________________________________________________________


Lyrics:


|:Dm  Am  G  G:|
call you at the midnight hour
needed    you right by my side
everlasting peace together
get up     i'm shaking inside

|:Dm  Am  G G:|
feedin' me you're pleasing me
I'm begging for empathy your smile
haven't got a reason now
I'm high for the need somehow it feels

|:F G:|
like I could let myself go
or I could let myself show

|:Dm  C  G  F:|
but how does it feel the morning right after
all that I need has eaten my desperate mind
how does it feel the morning right after
all that i need my secret's in your disguise

|:Dm  Am  G G:|
loved you but I'm falling deeper
now I     guess I was wrong
everlasting peace together
trust in    yourself makes you strong

|:Dm  Am  G  G:|
lettin' my world drown in tears
if you'ld stop my rage and fear this time
she feeded me she pleased me too
but love annoyed my point of view, my sight

|:F G:|
like I could let myself go
or I could let myself show

|:Dm  C  G  F:|
but how does it feel the morning right after
all that I need has eaten my desperate mind
how does it feel the morning right after
all that i need my secret's in your disguise

|:Dm  C  G  F:|
how does it feel now
how does it feel nooow
you're leaving
you're leaving
you leave me inside now
leave me inside now
you leave me
if you can see me noow
if you can trust me noo0ow
if you can touch me noow
I will love you forever

________________________________________________________________________________________________________

Enjoy! ...Ha' det l?kkert!
-Fyrsten

(Hint: To sing this song right, just pinch yourself in the genitals!)
Comments