Junoon - Sayonee Chords & Tabs

 

Sayonee Chords & Tabs

Junoon Chords & Tabs

Version: 2 Type: Tab 0 ratings
1 star 2 stars 3 stars 4 stars 5 stars
comments

Sayonee Tab

   
Sayonee (Azaadi)

Intro
e ----10------10------10------10------10------10------10------10----
B --10--10--10--10--10--10--10--10--11--11--11--11--10--10--10--10--
G ------------------------------------------------------------------
D ------------------------------------------------------------------
A ------------------------------------------------------------------
E ------------------------------------------------------------------

									     Dm
e ----13------13------9------9-----------8-------5---------5--------
B --10--10--10--10--8---8--8---8-------6-------3-----------6--------
G -----------------------------------7-------5------5------7--------
D ----------------------------------------------------7----7--------
A ---------------------------------------------------------5--------
E ---------------------------------------------------------x--------

Repeat

Pre-Vocal Chords
Dm Bb, Dm Bb, Dm Bb, Dm A


(F)Sayonee	(C) (Dm)			Sayonee

[ Tab from: http://www.guitartabs.cc/tabs/j/junoon/sayonee_tab_ver_2.html ]
(Dm)Chen ik (Bb)pal (Dm)Nahin

(Dm)Chen ik (Bb)pal (Dm)Nahin 

(Dm)Chen ik (Bb)pal (Dm)Nahin 

(Dm)Aur koi (F)hal (C)Nahin (Dm)

Sayonee				Sayonee

Chen ik pal Nahin. Aur koi hal Nahin
Sayonee, Sayonee.


Kon (Dm)morae (Bb)muhar (Dm)
		
Kon (Dm)morae (F)(C)muhar (Dm)

Kon (Dm)morae (Bb)muhar(Dm)(Bb)
    
Koi (F)Sanval (C)nahin (Dm)

Chen ik pal nahin. Aur koi hal nahin
Sayonee, Sayonee

Kia Bashar ki Bisat, Kia Bashar ki Bisat
Aaj he kal nahin
Sayonee, Sayonee

Chen ik pal nahin. Aur koi hal nahin
Sayonee, Sayonee

Chor Meri Khata, Chor Meri Khata
Tu, to pagal nahin
Sayonee Sayonee

Chen ik pal nahin. Aur koi hal nahin
Sayonee, Sayonee


Tabbed by: The Unaffectionate Nomster (TUN)
I haven't got the solo quite worked out yet, and I wouldn't mind a little assistance.
Any criticisms, corrections, and/or suggestions are welcome. 
Please e-mail me at: nomibaby@mailcity.com
Comments