Junoon - Sayonee Chords & Tabs

 

Sayonee Chords & Tabs

Junoon Chords & Tabs

Version: 1 Type: Bass Tab 0 ratings
1 star 2 stars 3 stars 4 stars 5 stars
comments

Sayonee Bass Tab

Pre Chorus - Chain Ek Pal Nahein
G -----------------------------------------      ----------------------------
D ---------------------------3-2-----------      ----------------------------
A ----5-5--3-5-3-3-5----5-5-5-------5--3---  X3  --1-1-1-1-1-1-3-4-5---R-----
E ----------------------------------------- Then ----------------------------




Chorus - Sayonee
G ---------------------------------------------------------------------------
D ----------------------------------------------------------------3-2--------
A --1-1-0-1-0-1-0--3-3--1-3--1--1--3-----5-5--3-5-3-3-5----5-5-5-------5--3--
E ---------------------------------------------------------------------------




Verse - Kon Morae Muhar (Etc)
G -----------3-3------------3-3----------------7-7-7--------7-7-7-----------
D ---------------3--------------3-3------------------7-7-7------------------
A --1-1-1-----------1-1-1---------------5-5-5----------------------5-5------
E --------------------------------------------------------------------------
[ Tab from: http://www.guitartabs.cc/tabs/j/junoon/sayonee_btab.html ]
G --------3-3--------------3-3----------7--7-------------7-7----------------
D -------------3-3-------------3-------------7-7-------7-----7--7-----------
A -1-1-1------------1-1-1---------3-5-5----------5-5-5-----------------5-5--
E --------------------------------------------------------------------------




Interlude
G ---------------------------------------------------------------------------
D -------5-5-5-5--------------------5-5-5-5--5h7--5h7--5h7--5h7s-------------
A ---5-x---------5-x-4-4-4-4----5-x------------------------------------------
E ---------------------------------------------------------------------------

G ---------------------------------------------------------------------------
D -------5-5-5-5--------------------5-5-5-5-------12s0-----------------------
A ---5-x---------5-x-4-4-4-4----5-x------------------------------------------
E ---------------------------------------------------------------------------



Solo
G ------------------------------------------- Each --------------------------
D ---------------------------3-2------------- Time --------------------------
A ----5-5--3-5-3-3-5----5-5-5-------5--3-----  X2  --------------------------
E ------------------------------------------- Then --1-1-1-1-3-3-3-3---------

G ---------------------------------------------------------------------------
D -------5-5-5-5--------------------5-5-5-5--5h7--5h7--5h7--5h7s-------------
A ---5-x---------5-x-4-4-4-4----5-x------------------------------------------
E ---------------------------------------------------------------------------


Osman Siddiqi
k_c0bain@hotmail.com
Pak-Khi-Kgs

Comments