Junoon - Saeein Chords & Tabs

 

Saeein Chords & Tabs

Junoon Chords & Tabs

Version: 3 Type: Tab 0 ratings
1 star 2 stars 3 stars 4 stars 5 stars
comments

Saeein Tab

   
Saaein (Inquilaab)

Intro

Repeat 4 times

	    D			  Bb/D  
e ------------------------------------------------------------------
B --------3-3-------------3-3-------2h3-3--3-3--3-3-----------------
G --0h2---2-2-2-0---2h3---3-3-3-2-------0--3-3--2-2-2-0-------------
D ------0-0-0-----------0-0-0-----------0--0-0--0-0-----------------
A ------------------------------------------------------------------
E ------------------------------------------------------------------


    Saaein          Tu hi           Mera sacha saaein tu hai
e ------------------------------------------------------------------
B --------3-3-------------3-3-------2h3-3--3-3--3-3-----------------
G --0h2---2-2-2-0---2h3---3-3-3-2-------0--3-3--2-2-2-0-------------
D ------0-0-0-----------0-0-0-----------0--0-0--0-0-----------------
A ------------------------------------------------------------------
E ------------------------------------------------------------------

    Saaein          Tu hi           Mera sacha saaein tu hai
e ------------------------------------------------------------------
B --------3-3-------------3-3-------2h3-3--3-3--3-3-----------------
G --0h2---2-2-2-0---2h3---3-3-3-2-------0--3-3--2-2-2-0-------------
D ------0-0-0-----------0-0-0-----------0--0-0--0-0-----------------
A ------------------------------------------------------------------
E ------------------------------------------------------------------

    Main tera       Banda    Tu hi  Mera Maula saaein    Tu hi
e ------------------------------------------------------------------
B --------3-3-------------3-3-------2h3-3--3-3--3-3-----------------
G --0h2---2-2-2-0---2h3---3-3-3-2-------0--3-3--2-2-2-0-------------
D ------0-0-0-----------0-0-0-----------0--0-0--0-0-----------------
A ------------------------------------------------------------------
E ------------------------------------------------------------------

    Mera Maula saaein    
e ------------------------------------------------------------------
B --2h3-3--3-3--3-3-------------------------------------------------
G ------0--3-3--2-2-2-0---------------------------------------------
D ------0--0-0--0-0-------------------------------------------------
A ------------------------------------------------------------------
E ------------------------------------------------------------------
[ Tab from: http://www.guitartabs.cc/tabs/j/junoon/saeein_tab_ver_3.html ]
								   Mute
e ------------------------------------------------------------------
B --------3-3-------------3-3-------2h3-3--3-3--3-3-----------------
G --0h2---2-2-2-0---2h3---3-3-3-2-------0--3-3--2-2-----------------
D ------0-0-0-----------0-0-0-----------0--0-0--0-0-----------------
A ----------------------------------------------0-0-----------------
E ------------------------------------------------------------------

  Tan mein tu hai             man mein tu hai
    D					C
e ----------------------------0-------------------------------------
B --3---3---------------------1-1-----------------------------------
G --2-2---2---2---------------0---0---0-----------------------------
D --0-------0-----------------2-----2-------------------------------
A ------------------------------------------------------------------
E ------------------------------------------------------------------


    Rooh ke andar		Tu hai
    Bb			A
e --0h1---1-------------0----0--------------------------------------
B --3-------3-----------2--2---2------------------------------------
G --3---3-----3---------2--2-----2----------------------------------
D --3-------------------2----------2--------------------------------
A ------------------------------------------------------------------
E ------------------------------------------------------------------

    Aas hai teri		Pyaas hai teri
    G				F
e --3--3-----3----------1----1--------------------------------------
B --3------3------------1--1----------------------------------------
G --0----0-----0--------2------2------------------------------------
D --0-------------------3--------3----------------------------------
A --2-------------------3-------------------------------------------
E ------------------------------------------------------------------

    Ishq samandar		tu hai
    C				Bb/A
e --0------0------------0-------------------------------------------
B --1----1---1----------2-2h3---------------------------------------
G --0--0-------0--------2-----2h3-----------------------------------
D --2-------------------2---------2---------------------------------
A --3---------------------------------------------------------------
E ------------------------------------------------------------------

This is as far as I got... it's not perfect, but it's the closest I can get... try it out, 
it doesn't sound half bad. One thing though... I've written the chord names only for the 
reader to understand it; however, you should hold the notes the way they are shown, or they 
won't sound right.

Tabbed by: The Unaffectionate Nomster (TUN)
Any criticisms, corrections, and/or suggestions are welcome.
Please e-mail me at: nomibaby@mailcity.com
Comments