Junoon - Saeein Chords & Tabs

 

Saeein Chords & Tabs

Junoon Chords & Tabs

Version: 2 Type: Tab 0 ratings
1 star 2 stars 3 stars 4 stars 5 stars
comments

Saeein Tab

   
submitted by ALI IQBAL of INTEHA

play this song clean with a gap after the intro...the whole song is based
on the same tabs.....

H = hammer
P = pick
S = slide


Intro:
E------------------------------------------------------
B---H---3------P----S---3-----P---3--33---3--33---3-3-3
G--0/2--2---2-2/0--2/3--3--3-3/0--2--22---3--33---2-2-2
D-------2-------------------------2--22---3--33---2-2-2
A------------------------------------------------------
E------------------------------------------------------


Saeein           Tu Hi            Mera Sacha Saeein Tu Hai...
E----H---------P---------------------------------------
B--3----3---3-3-----S---3-----P---3--33---3--33---3-3-3
G--0/2--2---2-2/0--2/3--3--3-3/0--2--22---3--33---2-2-2
D--2----2---2-2-------------------2--22---3--33---2-2-2
A------------------------------------------------------
E------------------------------------------------------
[ Tab from: http://www.guitartabs.cc/tabs/j/junoon/saeein_tab_ver_2.html ]
Tan Main Tu Hai      Man Main Tu Hai
E----------------------------------------
B--3-----------------3-------------------
G--0-----------------2-------------------
D--2-----------------2-------------------
A----------------------------------------
E----------------------------------------

Rooh Ke Ander Tu HaiE
----------------------------------------
B--3-----------------3-------------------
G--3-----------------2-------------------
D--3-----------------2-------------------
A----------------------------------------
E----------------------------------------

Aas Hai Teri Piyas Hai Teri
E----------------------------------------
B--3-----------------3-------------------
G--3-----------------2-------------------
D--3-----------------2-------------------
A----------------------------------------
E----------------------------------------

Ishq Samander Tu Hai
E----------------------------------------
B--3-----------------3-------------------
G--0-----------------2-------------------
D--2-----------------2-------------------
A----------------------------------------
E----------------------------------------
Comments