Junoon - Pyar Bina Chords & Tabs

 

Pyar Bina Chords & Tabs

Junoon Chords & Tabs

Version: 1 Type: Tab 0 ratings
1 star 2 stars 3 stars 4 stars 5 stars
comments

Pyar Bina Tab

   
Artist: Junoon
Song: Pyar Bina
Tabbed By: Babar Raza 
Questions,suicide notes, death threats to babar_666@hotmail.com

Riff 1
e|--------------------------------|
B|--------------------------------|
G|--------------------------------|
D|-0-5p0-0-5p0--0-3p0-0-3p0-0-3p0-|
A|--------------------------------|
E|--------------------------------|

Riff 2
e|-----5-----3-----|
B|-------3-----3---|
G|---4-----4-----4-|
D|-5---------------|
A|-----------------|
E|-----------------|

Riff 3
e|-----3-----1-----|
B|-------1-----1---|
G|---2-----2-----2-|
D|-3---------------|
A|-----------------|
E|-----------------|

Riff 4
e|------10-----8-----|
B|---------8-----8---|
G|----9------9-----9-|
D|-10----------------|
A|-------------------|
E|-------------------|

Solo
e|---------------------------------------------------|
B|-8/10-8~-12~-8/10-8--8-8\7-7\5-5\3-3\1--1-1/3-1-3~-|
G|---------------------------------------------------|
D|---------------------------------------------------|
A|---------------------------------------------------|
E|---------------------------------------------------|

e|---------------------------------------------------|
B|-8/10-8~-12b15r12-8/10-8--8-8\7-7\5-5\3-3\1--1-1/3-|
G|---------------------------------------------------|
D|---------------------------------------------------|
A|---------------------------------------------------|
E|---------------------------------------------------|

e|-------------------------------------|
B|-12-12-12-13-13-13-15-15-15-13-13-13-| x2
G|-------------------------------------|
D|-------------------------------------| 
A|-------------------------------------|
E|-------------------------------------|
[ Tab from: http://www.guitartabs.cc/tabs/j/junoon/pyar_bina_tab.html ]
e|-12-12-12-13-13-13-15-15-15-13-13-13-12~-|
B|-----------------------------------------|
G|-----------------------------------------|
D|-----------------------------------------|
A|-----------------------------------------|
E|-----------------------------------------|

e|-15-13-12--12-13-12-------------------------|
B|---------------------15-13-12--12-13-12-10~-|
G|--------------------------------------------|
D|--------------------------------------------|
A|--------------------------------------------|
E|--------------------------------------------|

Intro
Riff 1 then
G - F - C - G

(G) Pyar bina, hum ju (C) da tum (D) Juda 
Pyar bi (F) naaa (C) Pyaar bi (G) na 
Riff 2 x2
(G) Pyar bina, kya ba (C) shar kya (D) Khudaaa, 
Pyar bi (F) naaa (C) Pyaar bi (G) na 
Riff 2 x2
Riff 3 x2
Riff 2 x2

Dil say (Am) Dil koo (F) eee 
nazdeek (C) aata (G) rahay 

(Am)(F)(C)(G) 

Aur (Am) roohon ka (F) roohon say 
(C) naata (G) rahay 

(Am)(F)(C)(G) 

(G) Zinda (Dm) gee (Dsus4) kuch (Dm) naa (G) hin 
(G) Banda (Dm) gee (Dsus4) kuch (Dm) naa (G) hin 
     				 Riff 2 x2    
Pyar bi (F) naa (C) Pyaar bi (G) naa. 

Riff 2 x2                 Riff 3 x2
Pyar bina, hum juda tum Juda
          Riff 4     Riff 2 x2
Pyar bina Pyaar bina 
Riff 2 x2                    Riff 3 x2
Pyar bina, kya bashar kya Khudaaa, 
          Riff 4
Pyar bina Pyaar bina 

Solo

Pyar to hai Lagan pyar to hai junoon, 
Siraf milnay say milta nahin hai sukoon. 

Rooh Pyaasi rahay, 
Aik Udaasi rahay, 
		  Riff 2 x2
Pyar bina, Pyar bina.

Riff 2 x2                 Riff 3 x2
Pyar bina, hum juda tum Juda
          Riff 4  Riff 2 x2
Pyar bina Pyaar bina 
Riff 2 x2                    Riff 3 x2
Pyar bina, kya bashar kya Khudaaa, 
          Riff 4  Riff 1 (play intro chords)
Pyar bina Pyaar bina 
Comments