Junoon - National Anthem Of Pakistan Chords & Tabs

 

National Anthem Of Pakistan Chords & Tabs

Junoon Chords & Tabs

Version: 3 Type: Tab 0 ratings
1 star 2 stars 3 stars 4 stars 5 stars
comments

National Anthem Of Pakistan Tab

Junoon: Pakistan National Anthem  

Tabbed by: Farhan Ahmad Mumtaz (budmash@hotmail.com)


Sounds great when played with distortion!! 
 

Key:
p = pull off
h = hammer on



e|-----------------------|----------------------|---------------------------|
B|--------------7--------|---10-----7-----------|------------------7--9-10--|
G|--------7--9-----9p7h9-|-------9-----7--------|------------7--9-----------|
D|-7--11-----------------|----------------11--9-|--11--12--9----------------|
A|-----------------------|----------------------|---------------------------|
E|-----------------------|----------------------|---------------------------|

e|---------------------|----------------------|
B|--9--7---------------|----------------------|
G|-------9--7--6-------|---9--7--6-7--6-------|
D|---------------------|-----------------9--7-|    REPEAT ONCE
A|---------------------|----------------------|
E|---------------------|----------------------|

[ Tab from: http://www.guitartabs.cc/tabs/j/junoon/national_anthem_of_pakistan_tab_ver_3.html ]
e|--------------------------|--9--10--12-14--15--17-18-|
B|--10--12--15-14--12--9-10-|--------------------------|
G|--------------------------|--------------------------|
D|--------------------------|--------------------------|
A|--------------------------|--------------------------|
E|--------------------------|--------------------------|


e|---------------------------------------|--------------------------------|
B|--14--15--19--21--21-22-21-19-21-18-19-|--17--15--14--15--14--12--10----|
G|---------------------------------------|--------------------------------|
D|---------------------------------------|--------------------------------|
A|---------------------------------------|--------------------------------|
E|---------------------------------------|--------------------------------|




e|-----------------------|----------------------|---------------------------|
B|--------------7--------|---10-----7-----------|------------------7--9-10--|
G|--------7--9-----9p7h9-|-------9-----7--------|------------7--9-----------|
D|-7--11-----------------|----------------11--9-|--11--12--9----------------|
A|-----------------------|----------------------|---------------------------|
E|-----------------------|----------------------|---------------------------|

e|---------------------|----------------------|
B|--9--7---------------|----------------------|
G|-------9--7--6-------|---9--7--6-7--6-------|
D|---------------------|-----------------9--7-|
A|---------------------|----------------------|
E|---------------------|----------------------|
Comments