Junoon - National Anthem Of Pakistan Chords & Tabs

 

National Anthem Of Pakistan Chords & Tabs

Junoon Chords & Tabs

Version: 2 Type: Tab 0 ratings
1 star 2 stars 3 stars 4 stars 5 stars
comments

National Anthem Of Pakistan Tab

National Anthem - Junoon!

By Sameer Aga.

------------------------|-----------------------|------------------------------------------|
----------------7-------|--10-----7-------------|------------------7--9--10--9--7----------|
----------7--9-----7--9-|------9-----7----------|------------7--9------------------9--7----|
--7--11-----------------|----------------11--9--|--9--11--9------------------------------9-|
------------------------|-----------------------|------------------------------------------|
------------------------|-----------------------|------------------------------------------|
[ Tab from: http://www.guitartabs.cc/tabs/j/junoon/national_anthem_of_pakistan_tab_ver_2.html ]
------------------------|-----------------------------|--9--10--12--14--15--18--9-------------------------|
------------------------|--10--12--15--14--12--9--10--|---------------------------------------------------|
--9--7--6--7--6---------|-----------------------------|---------------------------------------------------|
-----------------9--7---|-----------------------------|---------------------------------------------------|
------------------------|-----------------------------|---------------------------------------------------|
------------------------|-----------------------------|---------------------------------------------------|

------------------------------------------|-----|
--14--15--19--21--22--21--19--21--18--19--|-----|
------------------------------------------|-----|
------------------------------------------|-----|
------------------------------------------|-----|
------------------------------------------|-----|

------------------------|-----------------------|------------------------------------------|
----------------7-------|--10-----7-------------|------------------7--9--10--9--7----------|
----------7--9-----7--9-|------9-----7----------|------------7--9------------------9--7----|
--7--11-----------------|----------------11--9--|--9--11--9------------------------------9-|
------------------------|-----------------------|------------------------------------------|
------------------------|-----------------------|------------------------------------------|

------------------------|-----|
------------------------|-----|
--9--7--6--7--6---------|-----|
-----------------9--7---|-----|
------------------------|-----|
------------------------|-----|


Usman Haroon
usmanh_81@yahoo.com
Comments