Junoon - Kyoun Pareshan Hai Tu Chords & Tabs

 

Kyoun Pareshan Hai Tu Chords & Tabs

Junoon Chords & Tabs

Version: 1 Type: Chords 0 ratings
1 star 2 stars 3 stars 4 stars 5 stars
comments

Kyoun Pareshan Hai Tu Chords

   
Kiyoun Pareshan by Junoon from Azaadi.


Tabbed by : Zaib   aka. talwaar


Send corrections and feedback to talwaar@hotmail.com
                                 talwaar@cc.gatech.edu


Intro :


E ------------3---------3-----------5-----------3----------3-------|
B ----------------0h1-------1-----------0----------1-----------1---|
G --------2---------------------2------------2---------2-----------|
D -----------------------------------------------------------------|
A ----0------------------------------------------------------------|
E -----------------------------------------------------------------|

E ------------3---------3-----------5-------|
B ----------------0h1-------1---------------|
G --------2---------------------2-----------|
D ------------------------------------------|
A ----0-------------------------------------|
E ------------------------------------------|

For the intro, basically hold this position on the guitar :

E ------3---------|    The rest are all open strings, once in a while
B ----------------|    you will hammer on a finger to the first fret
G ---2------------|    of the B string, and also play the 5th fret of
D ----------------|    E string while still holding the chord, this
A ----------------|    requires a bit of practice and stretching but
E ----------------|    its not so bad after a little practice.

This song uses alot of wierd chords, and i dont know the names of many
of them so I am writing them down here :

Fmaj7       D* ( i dont know       C/G
                 its real name)


E ---0--     --3--                --3--|
B ---1--     --3--                --1--|
G ---2--     --2--                --0--|
D ---3--     --0--                --2--|
A ---X--     --X--                --3--|
E ---X--     --X--                --X--|

Riff 1


just a little Am riff :


--0---0---0---0--------|
--1---0---1---1--------|
--2---2---2---2--------|
--2---2---2---2--------|
--X---X---X---X--------|
--X---X---X---X--------|


Riff 2 ( played in the chorus )
C with a changing root note

--X---X---X---X--------|   Emphasize the root note
--1---1---1---1--------|   here.
--0---0---0---0--------|
--2---2---2---2--------|
--3---2---2---2--------|
--X---X---X---X--------|


Riff 3

[ Tab from: http://www.guitartabs.cc/tabs/j/junoon/kyoun_pareshan_hai_tu_crd.html ]
E--3---3-----3--------|
B--1---1-----0--------|
G--X---X-----X--------|

Riff 4
little Fmaj7 variation

--X----X---X---X--------|
--0----1---3---1--------|
--2----2---2---2--------|
--3----3---3---3--------|
--X----X---X---X--------|
--X----X---X---X--------|


Fmaj7                   Riff1  Am                Fmaj7


     Kiyoun Pareshan hai tu, Kayee Jahan aur bhi hain


D*                G              Riff3


Kitnaaiiii Haseen aur bhi hain,


Fmaj7         Riff4    Fmaj7   G       Intro


hauuu haauuuu aur bhi hain,


Fmaj7 ( play once )           Am


Kiyoun Pareshan Hai Tu


     C/G           G        Riff2      Am


Tere Ishq nai shor machaey, shor machaey,


    C/G              G      Riff2     Am


nah charkha ghoom na haey, aas bolayai,

F     G      Riff2         F    G               Intro...


haaaauuu aas bolayaaaaaaii,haaaauuu aas bolayaaaaaaii,


Fmaj7             Riff1   Am                 Fmaj7


Kiyoun Pareshan Hai Tu,  Kayee Jahan aur bhi hain


D*                G           Riff3


Kitnaaiiii Haseen aur bhi hain,


Fmaj7         Riff4    Fmaj7      G


hauuu haauuuu aur bhi hain,


                          Intro.
Kiyoun Pareshan Hai Tu

    C/G                G     Riff2      Am


Koi tuj pai na anssoo bahai, anssoo bahai


    C/G                G     Riff2   Am


kisi karvat sau nahi pay, aas bolayai

F    G       Riff2      Am   F   G              Intro...


haaaauuu aas bolayaaaaaaii, haaaauuu aas bolayaaaaaaii,

Fmaj7


kyoon pareshan hai tuuuuuuuuuuuu


  C/G             G      Riff2    Am


phirbhi aapna log paray, log paraye,


  C/G             G      Riff2    Am


koi kabsai aas lagai, ass   bolayai,


F     G      Riff2      Am  F     G             Intro...


haaaauuu aas bolayaaaaaaii,haaaauuu aas bolayaaaaaaii,

Fmaj7


kiyoun pareshan hai tu

Usman Haroon
usmanh_81@yahoo.com
Comments