Junoon - Kis Nay Suna Chords & Tabs

 

Kis Nay Suna Chords & Tabs

Junoon Chords & Tabs

Version: 2 Type: Tab 0 ratings
1 star 2 stars 3 stars 4 stars 5 stars
comments

Kis Nay Suna Tab

   
Kaha jo unhon ne.

---7----0---0---7----0---0---7----0---0---7----0---0-------|
---7----0---0---7----0---0---7----0---0---7----0---0-------|
---7----0---0---7----0---0---7----0---0---7----0---0-------|
-----------------------------------------------------------|
-----------------------------------------------------------|
-----------------------------------------------------------|

---5----7---7---5----7---7---5----7---7--|
---5----7---7---5----7---7---5----7---7--|
---5----5---5---5----5---5---5----5---5--|
-----------------------------------------|
-----------------------------------------|
-----------------------------------------|

---5-5-5-5-6-6-7-7---|      Then repeat from
---5-5-5-5-6-6-7-7---|      beginning again.
---5-5-5-5-5-5-5-5---|
---------------------|
---------------------|
---------------------|

Solo: (Brilliantly transcribed by "Parees" on the
Junoon Discussion Forum. Simply a masterpiece!)

h
e-------12-------10------8-----7-----5-----3-----2s0--<12>-|
B----------------------------------------------------------|
G--9s12----12s11----11s9---9s7---7s5---5s4---4s2-----------|
D----------------------------------------------------------|
A----------------------------------------------------------|
E----------------------------------------------------------|
[ Tab from: http://www.guitartabs.cc/tabs/j/junoon/kis_nay_suna_tab_ver_2.html ]
h h h
e----------<5>---------------------------------------------|
B------<7>-------------------------------------------------|
G--<7>-----------------------------------------------------|
D----------------------------------------------------------|
A----------------------------------------------------------|
E----------------------------------------------------------|

e----------------------------------------------------------|
B------8-7-5---5-------------------------------------------|
G--5-7-------7------4s2-4-4--------------------------------|
D----------------------------------------------------------|
A----------------------------------------------------------|
E----------------------------------------------------------|

e--7-8-7-5--5-7-5--------5---5s7-5-------------------------|
B--8--------7-----8----8---8-------8-7-5---7---------------|
G----------------------------------------7---------7-------|
D----------------------------------------------7s9---9-----|
A----------------------------------------------------------|
E----------------------------------------------------------|


h
e-------12-------10------8-----7-----5-----3-----2s0--<12>-|
B----------------------------------------------------------|
G--9s12----12s11----11s9---9s7---7s5---5s4---4s2-----------|
D----------------------------------------------------------|
A----------------------------------------------------------|
E----------------------------------------------------------|

Usman Haroon
usmanh_81@yahoo.com
Comments