Junoon - Khudi Chords & Tabs

 

Khudi Chords & Tabs

Junoon Chords & Tabs

Version: 1 Type: Tab 0 ratings
1 star 2 stars 3 stars 4 stars 5 stars
comments

Khudi Tab

   
Khudi.

Intro:
---2------2--2----2------2--2--2--2--2--2------
---2------2--2----2------2--2--2--2--2--2------
---4------4--4----2------2--2--2--2--2--2------
---4------4--4----4------4--4--4--4--4--4------
---2------2--2----4------4--4--4--4--4--4------
---2------2--2----2------2--2--2--2--2--2------


   K h u d i      K o  K a r 
---2------2--2----2------2--2--2--2--2--2------
---2------2--2----2------2--2--2--2--2--2------
---4------4--4----2------2--2--2--2--2--2------
---4------4--4----4------4--4--4--4--4--4------
---2------2--2----4------4--4--4--4--4--4------
---2------2--2----2------2--2--2--2--2--2------


   B a l a n d    I t n a                 K e h
---2------2--2----2------2--2--2--2--2--2------
---2------2--2----2------2--2--2--2--2--2------
---4------4--4----2------2--2--2--2--2--2------
---4------4--4----4------4--4--4--4--4--4------
---2------2--2----4------4--4--4--4--4--4------
---2------2--2----2------2--2--2--2--2--2------


   Har taq   d e er se p  e  h  l  e
---5----5----5----5----4----4----4----4--------
---5----5----5----5----4----4----4----4--------
---6----6----6----6----5----5----5----5--------
---7----7----7----7----6----6----6----6--------
---7----7----7----7----6----6----6----6--------
---5----5----5----5----4----4----4----4--------


[ Tab from: http://www.guitartabs.cc/tabs/j/junoon/khudi_tab.html ]
   K h u d a      B  a  n  d  e   se yeh
---2------2--2----2------2--2--2--2--2--2------
---2------2--2----2------2--2--2--2--2--2------
---4------4--4----2------2--2--2--2--2--2------
---4------4--4----4------4--4--4--4--4--4------
---2------2--2----4------4--4--4--4--4--4------
---2------2--2----2------2--2--2--2--2--2------


   p  o  o  c  h  e - e - e - e - e
---2------2--2----2------2--2--2--2--2--2------
---2------2--2----2------2--2--2--2--2--2------
---4------4--4----2------2--2--2--2--2--2------
---4------4--4----4------4--4--4--4--4--4------
---2------2--2----4------4--4--4--4--4--4------
---2------2--2----2------2--2--2--2--2--2------


   B    a     t     a      a    a       Teri raza kya
---2-----2-----2-----2-----0--0--0-------------------
---3-----3-----3-----3-----0--0--0-------------------
---2-----2-----2-----2-----0--0--0-------------------
---0-----0-----0-----0-----2--2--2-------------------
---x-----x-----x-----x-----2--2--2-------------------
---x-----x-----x-----x-----0--0--0-------------------


   h a i
---2------2--2----2------2--2--2--2--2--2------
---2------2--2----2------2--2--2--2--2--2------
---4------4--4----2------2--2--2--2--2--2------
---4------4--4----4------4--4--4--4--4--4------
---2------2--2----4------4--4--4--4--4--4------
---2------2--2----2------2--2--2--2--2--2------


That's all for this song. Remember to add a lot of "feel" into it while you're playing. 
Just pound up and down on those strings the way you make it feel right. Get it???

Usman Haroon 
usmanh_81@yahoo.com

Comments