Junoon - Khuab Chords & Tabs

 

Khuab Chords & Tabs

Junoon Chords & Tabs

Version: 1 Type: Tab 0 ratings
1 star 2 stars 3 stars 4 stars 5 stars
comments

Khuab Tab

   
Khuab

Intro
Riff 1
     E		  A		 F#m		E		
e ------------------------------------------------------------------
B ------------------------------------------------------------------
G ------1-----------2----------2------------------1-----------------
D --------2-----------2----------2---2/4------2-----2---2-----------
A ----2------2/4--0-----0----4-----4--------2---2-----2-------------
E --0-------------------------------------0-------------------------

   Door         Jo Aaj        Hain 
   Khuab        Adhoore       Sahi
   E					A
e ----------------------------------------5----5--------------------
B ------------------------------------------5----5------------------
G ------1-----------1-------------------6----------6---6------------
D --------2-----------2---------7-----7-------7------7--------------
A ----2-------2---2-----2/4-------7---------------------------------
E --0-----------0-------------5-----5-------------------------------

   Yaad         Aate To            Hain
   Khuab        Sahare To          Hain
   F#m				     E
e ------------------------------------------------------------------
B ----2-------------2-----------------------------------------------
G ------2-------------2-------2------------1-------2-----1----------
D --------4---4---------4---4----------2-----2---2---2-----2-----2--
A ----------4---4---------4----------2---2-----2-------2-------2----
E --2-------------2----------------0-------------------------0------
[ Tab from: http://www.guitartabs.cc/tabs/j/junoon/khuab_tab.html ]
    Aaj Bhi    Meri             Rahain  Rokti Hain
    Yadain     Teri             Daaman Khainchti Hain
    C#m           A             F#m         E
e ------------------------------------------------0-----------------
B ------2-------------2---------2---2-------0---0---0---0-----------
G --1-1---1---1---2-2---2---2---2-2---2-----1-1-------1-------------
D --2-------2-----2-------2-----4-------0---2-----------------------
A --0-------------0-------------4-----------2-----------------------
E ------------------------------------------------------------------

    Bhool Chuke  Hain Jo Humain Yaad Aate To Hain 
    G#m            C#m          A           B
e ------------------------------------------------------------------
B --4---4--------------2------------2-------4-4-4-4-4-4-------------
G --4-----4---4----1-1---1---1--2-2---2-----4-4-4-4-4-4-(Continue)--
D --6-6-----6------2-------2----2-------2---4-4-4-4-4-4-------------
A --6--------------0------------0-----------2-----------------------
E ------------------------------------------------------------------

The rest of the song follows the same guitar method:

E         A      F#m           E
Sadyon Ke Faasle Aaj Hain Darmiyan
E        A     F#m         E
Hojain Magar Jitni Bhi Dooriyan
E             A
Aap Jahan Bhi Rahain
F#m           E
Aap Hamare To Hain
E               A
Khuab Adhoore Sahi
F#m             E
Khuab Sahare To Hain
C#m            A      F#m       E
Jane Phir Kab Milain Tere Mere Raaste
C#m       A    F#m       E
Aas Toote Nahi Yaad Itna Rahe
E               A
Raat Dhalni To Hai
F#m           E
Aane Ujale To Hain


Tabbed by: The Unaffectionate Nomster (TUN)
Any criticisms, corrections, and/or suggestions are welcome.
Please e-mail me at: nomibaby@hotmail.com.
Comments